Oops, an error
Loading. Please wait.

Through Blood And Dirt And Bone Tab

version 1
version 1

Whole song

Interactive

by Trivium
17,551 views 36 this week
9 commentsread comments
1 2 3 4 5
x 19
add to favorites
launch autoscroll
font size
0
reset
how to read this tab
guitar tuner
Autoscroll
slow
fast
+/-
esc
set tempo
stop
Author
Difficulty
Tuning
intermediate
C# G# C# F# A# D#
Tabbed by: Connor Ford

Band:  Trivium
Song:  Through Blood And Dirt And Bone
Album: Vengeance Falls (2013)

Tuning: Drop C# (C#, G#, C#, F#, A#, D#)
(Tune all strings down half a step then drop tune)

If you're fans of Trivium's early stuff, be sure to check out Shogun
and In Waves on my contributions!

Please rate, comment, correct, anything that will help :)

Guitar 1:        Matt Heafy
Guitar 2:        Corey Beaulieu
Guitar 3:        Corey Beaulieu (Additional harmonies)

[Intro]

  Guitar 1
D#||--------------------------------------------------------------------------||
A#|o--------------------------------------------------------------------------o|
F#||--------------------------------------------------------------------------||
C#||-0------------------------------------------------------------------------||
G#|o-0------------------------------------------------------------------------o|
C#||-0------------------------------------------------------------------------||
  |
  |Guitar 2
D#||--------------------------------------------------------------------------||
A#|o-------10-----------11---8-----------10----------------10----13/15--------o|
F#||-7------------7-------------------------10p9--------------10-------12-----||
C#||---0-0----0-0---0-0----0---0-0-0-0-0---------0-0-0-0-0----------------0-0-||
G#|o--------------------------------------------------------------------------o|
C#||--------------------------------------------------------------------------||

  Guitar 1
D#||--------------------------------------------------------------------------||
A#|o-------10-----------11---8-----------10----------------10----13/15--------o|
F#||-7------------7-------------------------10p9--------------10-------12-----||
C#||---0-0----0-0---0-0----0---0-0-0-0-0---------0-0-0-0-0----------------0-0-||
G#|o--------------------------------------------------------------------------o|
C#||--------------------------------------------------------------------------||
  |
  |Guitar 2
D#||-----------------------------------------------------------------||
A#|o-----------------------------------------------------------------o|
F#||-----------------------------------------------------------------||
C#||-----------------------------------------------------------------||
G#|o-----------------------------------------------------------------o|
C#||-0-0-0-0-0-0-0-0-2-2-2-2-2-2-2-2-3-3-3-3-3-3-3-3-5-5-5-5-5-5-5-5-||

[Main Verse]

  Both guitars
D#|---------------------------------------------------------------------|
A#|---------------------------------------------------------------------|
F#|---------------------------------------------------------------------|
C#|-------7-----------8----5-----------7---------------7---10/12--------|
G#|-5-----------5------------------------8-7\5-----------8-------10-----|
C#|---0-0---0-0---0-0---0----0-000-0-0---------000-0-0--------------0-0-|

  Guitar 1
D#|---------------------------------------------------------------------|
A#|---------------------------------------------------------------------|
F#|---------------------------------------------------------------------|
C#|-------7-----------8----5-----------7---------------7---10/12--------|
G#|-5-----------5------------------------8-7\5-----------8-------10-----|
C#|---0-0---0-0---0-0---0----0-000-0-0---------000-0-0--------------0-0-|
  |
  |Guitar 2
D#|----------------------------------------------------------------------------|
A#|----------------------------------------------------------------------------|
F#|----------------------------------------------------------------------------|
C#|-------10-----------12----8-----------10-----------------10----14/15--------|
G#|-8------------8--------------------------12-10\8------------12-------13-----|
C#|---0-0----0-0---0-0----0----0-000-0-0------------000-0-0----------------0-0-|

[Verse 1]

  Both guitars
D#|-------------------------------------------------|
A#|-------------------------------------------------|
F#|-------------------------------------------------|
C#|-0-0-0-0-M---0-0-0-0-M---0-0-0-0-M---0-----------|
G#|-0-0-0-0-M---0-0-0-0-M---0-0-0-0-M---0---0-0-0-0-|
C#|-0-0-0-0-M-0-0-0-0-0-M-0-0-0-0-0-M-0-0---0-0-0-0-|

D#|-------------------------------------------------|
A#|-------------------------------------------------|
F#|-------------------------------------------------|
C#|-0-0-0-0-M---0-0-0-0-M---0-0-0-0-M---------------|
G#|-0-0-0-0-M---0-0-0-0-M---0-0-0-0-M---------------|
C#|-0-0-0-0-M-0-0-0-0-0-M-0-0-0-0-0-M-0-0-0-2-2-3-3-|

D#|-------------------------------------------------|
A#|-------------------------------------------------|
F#|-------------------------------------------------|
C#|-8-8-8-8-M---8-8-8-8-M---8-8-8-8-M---8-8---------|
G#|-8-8-8-8-M---8-8-8-8-M---8-8-8-8-M---8-8-8-8-8-8-|
C#|-8-8-8-8-M-8-8-8-8-8-M-8-8-8-8-8-M-8-8-8-8-8-8-8-|

  Guitar 1
D#|-------------------------------------------------|
A#|-------------------------------------------------|
F#|-------------------------------------------------|
C#|-7-7-7-7-M---7-7-7-7-M---11-11-11-11-M-----------|
G#|-7-7-7-7-M---7-7-7-7-M---12-12-12-12-M-----------|
C#|-7-7-7-7-M-7-7-7-7-7-M-7-11-11-11-11-M---/11~~~~-|
  |
  |Guitar 2
D#|-------------------------------------------------|
A#|-------------------------------------------------|
F#|-------------------------------------------------|
C#|-7-7-7-7-M---7-7-7-7-M---11-11-11-11-M---7PH~~~~-|
G#|-7-7-7-7-M---7-7-7-7-M---12-12-12-12-M-----------|
C#|-7-7-7-7-M-7-7-7-7-7-M-7-11-11-11-11-M-----------|

  [Verse 2]
  Both guitars
D#||---------------------------------------------------------------------||
A#|o---------------------------------------------------------------------o|
F#||---------------------------------------------------------------------||
C#||-------7-----------8----5-----------7---------------7---10/12--------||
G#|o-5-----------5------------------------8-7-------------8-------10-----o|
C#||---0-0---0-0---0-0---0----0-0-0-0-0-------0-0-0-0-0--------------0-0-||

[Chorus]

  Guitar 1
D#|-----------------------------------------------------------------|
A#|-----------------------------------------------------------------|
F#|-----------------------------------------------------------------|
C#|-0-0-0-0-0-0-0-0-0-0-0-0-0-0-0-0-0-0-0-0-0-0-0-0-0-0-0-0-0-0-0-0-|
G#|-0-0-0-0-0-0-0-0-0-0-0-0-0-0-0-0-0-0-0-0-0-0-0-0-0-0-0-0-0-0-0-0-|
C#|-0-0-0-0-0-0-0-0-0-0-0-0-0-0-0-0-0-0-0-0-0-0-0-0-0-0-0-0-0-0-0-0-|
  |
  |Guitar 2
D#||------------------------------------||
A#|o------------------------------------o|
F#||---7-9---7-10---7-9---7-10---7-10-9-||
C#||-7-----7------7-----7------7--------||
G#|o------------------------------------o|
C#||------------------------------------||

  Guitar 1
D#|-------------------------------------------------------------------------|
A#|-------------------------------------------------------------------------|
F#|-------------------------------------------------------------------------|
C#|-8-8-8-8-8-8-8-8-8-8-8-8-8-8-8-8-10-10-10-10-10-10-10-10-7-7-7-7-7-7-7-7-|
G#|-8-8-8-8-8-8-8-8-8-8-8-8-8-8-8-8-10-10-10-10-10-10-10-10-7-7-7-7-7-7-7-7-|
C#|-8-8-8-8-8-8-8-8-8-8-8-8-8-8-8-8-10-10-10-10-10-10-10-10-7-7-7-7-7-7-7-7-|
  |
  |Guitar 2
D#|-------------------------------------------------------------------------|
A#|-------------------------------------------------------------------------|
F#|---7-9---7-10---7-9---7-10---7-10-9----9-10-9-10-12-10-9---6-7-6-7-9-7-6-|
C#|-8-----8------8-----8------8--------10-------------------7---------------|
G#|-------------------------------------------------------------------------|
C#|-------------------------------------------------------------------------|

Repeat Verse 1

Repeat Verse 2

Repeat Chorus

  [Bridge]
  Guitar 1
D#|-----------------------------------------------------------------|
A#|-----------------------------------------------------------------|
F#|-------------------------------------------------6-6-6-6-6-6-6-6-|
C#|-5-5-5-5-5-5-5-5-5-5-5-5-5-5-5-5-7-7-7-7-7-7-7-7-7-7-7-7-7-7-7-7-|
G#|-5-5-5-5-5-5-5-5-5-5-5-5-5-5-5-5-7-7-7-7-7-7-7-7-4-4-4-4-4-4-4-4-|
C#|-5-5-5-5-5-5-5-5-5-5-5-5-5-5-5-5-7-7-7-7-7-7-7-7-----------------|
  |
  |Guitar 2
D#|------------------------------------------------------------------------|
A#|----------------------------------------------------------8------8------|
F#|-7---7---7---7---7---7---9---9---10---10---10---10------9---9------9----|
C#|---5---5---5---5---5---5---5---5----7----7----7----7-11-------11-----11-|
G#|------------------------------------------------------------------------|
C#|------------------------------------------------------------------------|

[Breakdown]

  Both guitars
D#||-----------------------------------------------------------------||
A#|o-----------------------------------------------------------------o|
F#||-----------------------------------------------------------------||
C#||-----------------------------------------------------------------||
G#|o-000000000-------444-444-----0-2-555555555-------7-7-7-7-2-2-2-2-o|
C#||-000000000-------222-222-----0-2-333333333-------5-5-5-5-2-2-2-2-||

[Solo 1] (MKH)

Guitar 2 (Rhythm)

The rhythm played is Verse 1

  Guitar 1 (Lead)
D#|---------------------------------------------------|
A#|---------------------------------------------------|
F#|-\12~~~~~~~~-\10~~~~~~~~~-\9~~~~~~~~~-\7~~~~~~~~~~-|
C#|---------------------------------------------------|
G#|---------------------------------------------------|
C#|---------------------------------------------------|

D#|--------------------------------------------------------------------|
A#|---------------------------------------13BU(15)~~~---------10-11-13-|
F#|-\12~~~-14~~-\10~~~-12~~~-\9~~~-10~~~~-------------9-10-12----------|
C#|--------------------------------------------------------------------|
G#|--------------------------------------------------------------------|
C#|--------------------------------------------------------------------|

D#|-----------------------------------------------------------------|
A#|-/18~~~~~~~~~~-17~~----------11-13-15-/20~~~~~~~~~~-18~~~~~~~~~~-|
F#|--------------------10-12-14-------------------------------------|
C#|-----------------------------------------------------------------|
G#|-----------------------------------------------------------------|
C#|-----------------------------------------------------------------|

D#|-18-17h18p17--17------17-15h17p15--15------15-13h15p13--13-----|
A#|------------18--18-15------------17--17-14------------15--15---|
F#|------------------------------------------------------------14-|
C#|---------------------------------------------------------------|
G#|---------------------------------------------------------------|
C#|---------------------------------------------------------------|

D#|-17BU(18)~~~~~~~~~~~~~~~~-|
A#|--------------------------|
F#|--------------------------|
C#|--------------------------|
G#|--------------------------|
C#|--------------------------|

[Solo 2] (CKB)

Guitar 1 (Rhythm)

The rhythm played is Verse 2

  Guitar 2 (Lead)
D#|---------------------------------------------------------------|
A#|-20BU(22)---20BU(22)---20BU(22)---22BU(23)(22)p20-20BU(22)~~~~-|
F#|---------------------------------------------------------------|
C#|---------------------------------------------------------------|
G#|---------------------------------------------------------------|
C#|---------------------------------------------------------------|

D#|-22p17----17-----------------------------------|
A#|-------18----18\15-----------------------------|
F#|-------------------14-------------9-10-9-------|
C#|----------------------15-12-11-12--------12-11-|
G#|-----------------------------------------------|
C#|-----------------------------------------------|

D#|-------------------------------------------------|
A#|------------10---------11h13p11-10-11-10---------|
F#|-10-9-10-12----12-10-9-------------------12-10-9-|
C#|-------------------------------------------------|
G#|-------------------------------------------------|
C#|-------------------------------------------------|

  Guitar 2
D#|-----------------------------|
A#|-----------------------------|
F#|-/10~~-12-9~~~-/9~~-10-7~~~~-|
C#|-----------------------------|
G#|-----------------------------|
C#|-----------------------------|
  |
  |Guitar 3
D#|-----------------------------|
A#|-----------------------------|
F#|-/14~~-15-12~~-/12~~-14-10~~-|
C#|-----------------------------|
G#|-----------------------------|
C#|-----------------------------|

  Guitar 2
D#|-------------------------------------------------|
A#|----------------------------------13-15-13----13-|
F#|-------------------------12-14-15----------15----|
C#|----------------12-14-15-------------------------|
G#|-15-13-12-13-15----------------------------------|
C#|-------------------------------------------------|
  |
  |Guitar 3
D#|----------------------------------12-13-12----12-|
A#|-------------------------11-13-15----------15----|
F#|----------------10-12-14-------------------------|
C#|-14-12-10-12-14----------------------------------|
G#|-------------------------------------------------|
C#|-------------------------------------------------|

  Guitar 2
D#|-13-12-10-12-15-13-12-13-17\-|
A#|-----------------------------|
F#|-----------------------------|
C#|-----------------------------|
G#|-----------------------------|
C#|-----------------------------|
  |
  |Guitar 3
D#|-17-15-13-15-18-17-15-17-22\-|
A#|-----------------------------|
F#|-----------------------------|
C#|-----------------------------|
G#|-----------------------------|
C#|-----------------------------|

Repeat Chorus

Repeat Bridge

  [Outro]
  Both guitars
D#||-----------------------------------------------------------------||
A#|o-----------------------------------------------------------------o|
F#||-----------------------------------------------------------------||
C#||-----------------------------------------------------------------||
G#|o-000000000-------000-000-----0-0-000000000-------0-0-0-0-0-0-0-0-o|
C#||-000000000-------000-000-----0-0-000000000-------0-0-0-0-0-0-0-0-||



************************************

| Hammer on        h
| Pull off         p
| Slide up         /
| Slide down       \
| Bend up          BU(?)
| Tapped note      T
| Vibrato          ~~~
| Pinch Harmonic   PH
| Natural Harmonic NH
| Dive Bomb        DB
| After Muting     M
| Pick slide       X\\\ ('\' indicated duration)

************************************
Suggest correction
comments
print report bad tab
9 comments total. Showing first comments.
+3 reply
Metaldc 10 Oct 18, 2013 08:17 AM

Dude, you're a hero! Thanks for all the vengeance falls tabs they helped a lot!

+1 reply
Aletor93 10 Oct 27, 2013 07:05 AM

Can you Guitar Pro tab this please ? :p
As you, I'm waiting for new album of Machine Head..
Thanks a lot by the way.

+1 reply
zombi3 10 May 05, 2014 05:55 AM

Great tab, thanks brav!!!!

guest
You may want to rate the tab now too:
select rating
Wanna post a correction for this tab? Suggest correction