Oops, an error
Loading. Please wait.

To The Rats bass

version 1
version 1

Whole song

Interactive

by Trivium
3,006 views 3 this week
1 commentread comment
1 2 3 4 5
x 3
add to favorites
×
Save as Personal and add changes to this tab that will be seen only by you. Learn more ›
×
You can save this tab as Personal to edit and correct it or add notes. All changes will be seen only by you. Learn more »
launch autoscroll
font size
0
reset
guitar tuner
backing track
0:00
0:00
edit
Autoscroll
slow
fast
+/-
esc
set tempo
stop
Author
Difficulty
Artist: Trivium
Song: To the Rats
Album: The Crusade
Tab by: deathbat411
Tuning: Standard (low to high: EADG)

please rate and comment. 
have fun!  :)

Main Riff (guitar plays two before bass comes in)
G|---------------------------------------|
D|----------1-----------------0----------|
A|-3-222222---222222-3-222222---222222-3-|
E|---------------------------------------| 2x

Pre-Chorus 
G|-----------------------------------------|
D|-----------------------------------------|
A|-2-0-2-3-2-2222222-3-2-0-2-5-2-2222222-6-|
E|-----------------------------------------|

G|-----------------------------------------|
D|-----------------------------------------|
A|-2-0-2-3-2-2222222-3-2-0-2-6-2-2222222-5-|
E|-----------------------------------------|

Main Riff 4x
Pre-Chorus 2x

Chorus
G|--------------------------------------------------|
D|--------------------------------------------------|
A|-333-333333-000-000000-555-555-333-333-111-111111-|
E|--------------------------------------------------|

G|---------------------------------------|
D|---------------------------------------|
A|-333-333333-000-000000-555-555-333-333-|
E|---------------------------------------| 

Main Riff 4x
Pre-Chorus 2x
Chorus 1x

Bridge A
G|------------------------|
D|------------------------|
A|------------------------|
E|-0--0--0--0--0--0--0--0-| 1x 

Bridge B
G|---------------------------------------------------|
D|-------------------------------------2/4\2---------|
A|---------------------------------------------------|
E|-000-000-000-000-000-000-000-000-000-------3-5-2-3-| 2x

Solo
G|---------------------------------|
D|---------------------------------|
A|---------------------------------|
E|-0-1-0-1-0-1-0-1-0-1-0-1-0-1-0-3-| 4x

Bridge B 2x
Solo 4x
(bass is silent while guitar plays main riff)
Pre-Chorus A 2x
Chorus 1x

Outro
G|-------------------------------------------------|
D|-------------------------------------------------|
A|-1-1-1-1-1-1-3-3-3-3-3-3-0-0-0-0-0-0-5-5-5-3-3-3-|
E|-------------------------------------------------|

G|-----------------------------------------------------|
D|-----------------------------------------------------|
A|-1-1-1-1-1-1-3-3-3-3-3-3-0-0-0-0-0-0-5-5-5-3-3-3-(1)-|
E|-----------------------------------------------------|

End 

Key
( ) - Let ring
/ - Slide up the neck
\ - Slide down the neck



            
            
Suggest correction
Creating personal tab
Creating personal tab
You can edit any tab online and save it as your Personal.

You can edit, replace or remove any tab part or add personal notes – all changes will be seen only by you.

Personal tabs can be accessed anytime from any device, even offline.
Learn more »
Give kudos to tab author, rate the tab!
1 2 3 4 5
comments
print report bad tab
1 comment total.
0 reply
EkkyDethrax 20 Apr 20, 2011 06:16 AM

It doesn't match the guitar, or sound right several places.
You should check the guitar tabs for correction maybe, it would help a lot.

guest
You may want to rate the tab now too:
select rating
Wanna post a correction for this tab? Suggest correction