Oops, an error
Loading. Please wait.

Torn Between Scylla And Charybdis bass

version 1
version 1

Whole song

by Trivium
8,357 views 9 this week
1 commentread comment
1 2 3 4 5
x 6
add to favorites
×
Save as Personal and add changes to this tab that will be seen only by you. Learn more ›
×
You can save this tab as Personal to edit and correct it or add notes. All changes will be seen only by you. Learn more »
launch autoscroll
font size
0
reset
guitar tuner
backing track
0:00
0:00
edit
Autoscroll
slow
fast
+/-
esc
set tempo
stop
Author
Difficulty
5-String Bass Standard Tuning

I know its prolly not exactly what Paolo plays, but it goes along to the cd without 
stupid. Bass solos included, again decent but prolly not spot on

Fingerstyle

Intro
G|----------------------------|
D|----------------------------|
A|-------------------5-4-5-0--| X4
E|----------0-2-5-3~----------|
B|-0~-0-2-3-------------------|

Intro 2
(If you don't think the bottom part is correct, play the top part)
G|--------------------------------------------------|
D|--------------------------------------------------|
A|------------------------------------------5-4-5-0-| X2
E|-------------------0002225553333-3333-33----------| (follow guitar rythm)
B|-0000-0000-0022333--------------------------------|

G|---------|
D|---------|
A|---------|
E|---------|
B|-0~~~~~~-|

Verse X4
G|---------------------------------------------------------|
D|---------------------------------------------------------|
A|----------------------------------7----------------------|
E|--------9-7-9--------10-7-10-0-00---0-0-10-0-0-9-0-0-10--|
B|-0-00-0-------0-00-0-------------------------------------|

G|------------------------------------------------|
D|------------------------------------------------|
A|--------9-----7-----------------0H4---------0H2-|
E|-6-66-6---6-6---6-6-6\------0H2---------0H1-----|
B|------------------------0H3---------0H2---------|

Verse 2 i think not exactly sure
G|------------------------------------------------------------|
D|------------------------------------------------------------|
A|------------------------------------------------------------|
E|-7\--------2----3---6-7\------------------------------------|
B|----0-00-0---00--00------0-00-0-333-666---------------------|

G|-----------------------------------------------|
D|-----------------------------------------------|
A|-------------------------------0H4-5-4-2-------| X2
E|-7\--------2----3----6-----0H2-----------5-4-2-|
B|----0-00-0---00---00---0H3---------------------|

G|-------------------------|
D|-------------------------|
A|---------0H2-4-2-0-------|
E|-----0H1-----------4-2-1-|
B|-0H2---------------------|

Pre-Chorus
|-------------------------------------------------------------------------|
|-------------------------------------------------------------------------|
|-------------------------------------------------------------------------|
|-7777-5555-3333-2222-0000-2222-3333-555555-7777-5555-3333-2222-0000-2222-|
|-------------------------------------------------------------------------|

|---------------------|
|_--------------------|
|-101010101010-999999-|
|---------------------|
|---------------------|

Chorus
|-------------------------------------------|
|-------------------------------------------|
|-------------------------------------------|
|---------3~~-3-3-2------------3--3-3-2-3-2-|
|-0~---3~-----------3--0~---3---------------|

Play everything from the verse to the chorus, but when you get to the pre-chorus play 
of it and play the chorus 4 times, listen to the song and you'l know what i mean

Breakdown Thing
G|---|
D|---|
A|---|
E|-0-|
B|---|

|---------------------------------------------------------------------|
|---------------------------------------------------------------------|
|---------------------------------------------------------------------|
|--------------------------------0------------------------------------|
|-0~~~~~~~~~~~~~~~~~~~~~~~~---------------------0~~~~~~~~~~~~~~~~~~~~~|

(ALL TOGETHER PLAY TWICE)
|-------------------------------------------------------------------------|
|-------------------------------------------------------------------------|
|-----NOT-EXACTLY-SURE-HOW-MANY-TIMES----------------(X2)-----------------|
|-00000000000000000000000000000000000000--10-0-6-0-7-0-9-0-10-0-6-0-7-0-9-|
|-------------------------------------------------------------------------|

G|-----------|
D|-----------|
A|-----------|
E|-7^-6-3^-2-|
B|-----------|

Solos
G|---------------------------------------------------------|
D|---------------------------------------------------------|
A|---------------------------------------------------------|
E|---767---979---10---10910---121012---121514---12---10---9|
B|-0-----0-----0----0-------0--------0--------0----0----0--|

G|-------------------------------------|
D|-------------------------------------|
A|------------------| ALTOGETH TIMES 2-|
E|-12---10---9---6---------------------|
B|----0----0---0-----------------------|

Second part of solo
G|----------------------------------------------------------------|
D|----------------------------------------------------------------|
A|---767---979---10---10910---121012---121514---12-10-9-12-10-9--6|X2
E|----------------------------------------------------------------|
B|-0-----0-----0----0-------0--------0--------0---0--0----0--0--0-|

G|------------------------------------------------|
D|------------------------------------------------|
A|------------------------------------------------| X2
E|------------------------------------------------|
B|-000-000-000-000-000-000-0-00-0-1-0-3-4-0-1-0-3-|

Bass Solo 1
g|-11-14-11-12-11-12-11-14-11-12-11-11--8h9-888-8h98-121212-11~-|
d|--------------------------------------------------------------|
a|--------------------------------------------------------------|
e|--------------------------------------------------------------|
b|--------------------------------------------------------------|

g|-9-11-12-14-12-11-9-11-12h14-12-11-11-8h9-88888--14-11-12-14-11-12-14-11--|
d|--------------------------------------------------------------------------|
a|--------------------------------------------------------------------------|
e|--------------------------------------------------------------------------|
b|--------------------------------------------------------------------------|

g|----------------------|
d|----------------------|
a|----------------------|
e|----------------------|
b|-0-0--0-0--0--0--0--0-|

PLay Second part of solo x2

G|------------------------------------------------|
D|------------------------------------------------|
A|------------------------------------------------| X2
E|------------------------------------------------|
B|-000-000-000-000-000-000-0-00-0-1-0-3-4-0-1-0-3-|
Bass Solo 2 (This ones more accurate
g|-/16-16-----------------------------------------------|
d|--------16-19-13-14\-13h14-13-13-13-14-13-17-17-17-16~|
a|------------------------------------------------------|
e|------------------------------------------------------|
b|------------------------------------------------------|

g|-----------------------------------------------------------------|
d|-14-16-17-16--14-16-17-21--13h14-13-13-16-16-16-17-17-17-19-19-19|
a|-----------------------------------------------------------------|
e|-----------------------------------------------------------------|
b|-----------------------------------------------------------------|

g|-----------------------------------------------------------|
d|-----------------------------------------------------------|
a|------------------0h4-5-4-2---------------oh2--4-2-0-------|
e|---------------0h2----------5-4-2-----0h1------------4-2-1-|
b|-0~~~~~~~---0h3-------------------0h2----------------------|

Play Full Pre-chorus
PLay Chorus x4

PLay First intro and fade

Thats it! this was a bitch to tab. its pretty good, u need a wah pedal
for the solo. Next i'll either do throes of perdition, the calamity, possibly mastodon 
the sky and blood mountain songs, maybe detonation.

            
            
Suggest correction
Creating personal tab
Creating personal tab
You can edit any tab online and save it as your Personal.

You can edit, replace or remove any tab part or add personal notes – all changes will be seen only by you.

Personal tabs can be accessed anytime from any device, even offline.
Learn more »
comments
print report bad tab
1 comment total.
0 reply
EkkyDethrax 20 Jun 12, 2011 12:26 PM

I'm pretty sure that the verse is like this:

Verse X4
G|---------------------------------------------------------|
D|----------------------------------7----------------------|
A|----------------------------------------10-----9-----10--|
E|--------9-7-9--------10-7-10-0-00---0-0----0-0---0-0-----|
B|-0-00-0-------0-00-0-------------------------------------|

G|------------------------------------------------|
D|------------------------------------------------|
A|--------9-----7-----------------0H4---------0H2-|
E|-6-66-6---6-6---6-6-6\------0H2---------0H1-----|
B|------------------------0H3---------0H2---------|

guest
You may want to rate the tab now too:
select rating
Wanna post a correction for this tab? Suggest correction