Oops, an error
Loading. Please wait.

Torn Between Scylla And Charybdis bass

version 2
version 2

Whole song

by Trivium
935 views 3 this week
no commentswrite comment
1 2 3 4 5
1 last vote to show rating
add to favorites
×
Save as Personal and add changes to this tab that will be seen only by you. Learn more ›
×
You can save this tab as Personal to edit and correct it or add notes. All changes will be seen only by you. Learn more »
launch autoscroll
font size
0
reset
guitar tuner
backing track
0:00
0:00
edit
Autoscroll
slow
fast
+/-
esc
set tempo
stop
Author
It took me 2 days to figure the song out and lay it out as a tab, but damn, it was 
worth it. This song is a thrill to play.
Enjoy
-Kaseke

You need a 5-string bass in standard tuning (BEADG) to play this song

************************
~ = vibrato
h = Hammer-on
p = Pull-off
/ = Slide up
\ = Slide down
r = rest
************************

(0:00)
G|---------------------------------|
D|---------------------------------|
A|----------------------/5--4--5-0-|
E|-----------0--2--5-3-------------|
B|-0--0-2-3------------------------| (x4)

G|-----------------------------------------------------|
D|-----------------------------------------------------|
A|------------------------------------------/5--4--5-0-|
E|--------------------0--2--5-3333r3333r3333-----------|
B|-0000r0000r00223333r---------------------------------|(x2)

G|-------------|
D|-------------|
A|-------------|
E|-------------|
B|-0-----12\-0-|

(0:42)
G|-------------------------------------------------------------| \
D|-------------------------------------------------------------| |
A|-----2h4-2-----4h5-4-----12--10--9-10------------------------| | 
E|-------------------------------------------------------------| |
B|0-000-----0-000-----0-000--00--00-0---0-00012-0-0-12-0-0-12\-|  \
                                                                   }(x4)
G|--------------------|                                           /
D|--------------------|                                          |
A|-------0h5------0h4-|                                          |
E|----0h2------0h2----|                                          |
B|-0h3------0h2-------|                                          /


(1:09)
G|--------------------------------------------------------|
D|--------------------------------------------------------|
A|--------------------------------------------------------|
E|-7\------------------7\-------------7\------------------|
B|---0-000-3-0-0-7-0-0---0-0-0-3--7-----0-000-3-0-0-7-0-0-|

G|-------------------------|
D|-------------------------|
A|---------0-4-7-5-4-------|
E|-----0-2-----------7-5-3-|
B|-0-3---------------------|

G|--------------------------------------------------------|
D|--------------------------------------------------------|
A|--------------------------------------------------------|
E|-7\------------------7\-------------7\------------------|
B|---0-000-3-0-0-7-0-0---0-0-0-3--7-----0-000-3-0-0-7-0-0-|

G|-------------------------------------------------|
D|-------------------------------------------------|
A|---------0-4-7-5-4---------------0-4-5-4-2-------|
E|-----0-2-----------7-5-3-----0-2-----------5-3-2-|
B|-0-3---------------------0-3---------------------|

(1:25)
G|-------------------------------------------------------------------------|
D|-------------------------------------------------------------------------|
A|-------------------------------------------------------------------------|
E|-7-7-7-7r5-5-5-5r3-3-3-3r2-2-2-2r0-0-0-0r2-2-2-2r3-3-3-3-3-3-5-5-5-5-5-5-|
B|-------------------------------------------------------------------------|

G|-------------------------------------------------------------------------------|
D|-------------------------------------------------------------------------------|
A|-------------------------------------------------10-10-10-10-10-10-9-9-9-9-9-9-|
E|-7-7-7-7r5-5-5-5r3-3-3-3r2-2-2-2r0-0-0-0r2-2-2-2r------------------------------|
B|-------------------------------------------------------------------------------|

G|--------------------------------------|
D|--------------------------------------|
A|--------------------------------------|
E|--------------------------------------|
B|-0---3-3--8---7\-2--0---3-3--8---7\-2-|

(1:51)
G|-------------------------------------------------------------| \
D|-------------------------------------------------------------| |
A|-----2h4-2-----4h5-4-----12--10--9-10------------------------| | 
E|-------------------------------------------------------------| |
B|0-000-----0-000-----0-000--00--00-0---0-00012-0-0-12-0-0-12\-|  \
                                                                   }(x2)
G|--------------------|                                           /
D|--------------------|                                          |
A|-------0h5------0h4-|                                          |
E|----0h2------0h2----|                                          |
B|-0h3------0h2-------|                                          /

(2:04)
G|--------------------------------------------------------|
D|--------------------------------------------------------|
A|--------------------------------------------------------|
E|-7\------------------7\-------------7\------------------|
B|---0-000-3-0-0-7-0-0---0-0-0-3--7-----0-000-3-0-0-7-0-0-|

G|-------------------------|
D|-------------------------|
A|---------0-4-7-5-4-------|
E|-----0-2-----------7-5-3-|
B|-0-3---------------------|

G|--------------------------------------------------------|
D|--------------------------------------------------------|
A|--------------------------------------------------------|
E|-7\------------------7\-------------7\------------------|
B|---0-000-3-0-0-7-0-0---0-0-0-3--7-----0-000-3-0-0-7-0-0-|

G|-------------------------------------------------|
D|-------------------------------------------------|
A|---------0-4-7-5-4---------------0-4-5-4-2-------|
E|-----0-2-----------7-5-3-----0-2-----------5-3-2-|
B|-0-3---------------------0-3---------------------|

(2:19)
G|-------------------------------------------------------------------------------|
D|-------------------------------------------------------------------------------|
A|-------------------------------------------------10-10-10-10-10-10-9-9-9-9-9-9-|
E|-7-7-7-7r5-5-5-5r3-3-3-3r2-2-2-2r0-0-0-0r2-2-2-2r------------------------------|
B|-------------------------------------------------------------------------------|

G|--------------------------------------|
D|--------------------------------------|
A|--------------------------------------|
E|--------------------------------------|
B|-0---3-3--8---7\-2--0---3-3--8---7\-2-|

G|-----------------------------------------------|
D|-----------------------------------------------|
A|-----------------------------------------------|
E|-----------------------------------------------|
B|-0---3-3--8---7\-2--0---3-3--8---7--7--2222222-|

G|----|
D|----|
A|----|
E|-0r-|
B|----|

(2:57)
G|---------------------------------------------| \
D|---------------------------------------------| |
A|-5----------5----------5----------5----------| |
E|--667667r9r--667667r9r--667667r9r--667667r9r-| |
B|---------------------------------------------|  \
                                                   }(x2)
G|----|                                           /
D|----|                                          |
A|----|                                          |
E|-0r-|                                          |
B|----|                                          /


G|---------------------------------------------|
D|---------------------------------------------|
A|-5----------5----------5----------5----------|
E|--667667r9r--667667r9r--667667r9r--667667r9r-|
B|---------------------------------------------|

G|------------------------------------------------------------------|
D|------------------------------------------------------------------|
A|-10--7--9r10r-10--7--9r10r-10--7--9r10r-10--7--9r10r-10--7--9r10r-|
E|---00-00--------00-00--------00-00--------00-00--------00-00------|
B|------------------------------------------------------------------|

G|---------------------------------------------|
D|---------------------------------------------|
A|-5----------5----------5----------5----------|
E|--667667r9r--667667r9r--667667r9r--667667r9r-|
B|---------------------------------------------|

G|---------------------------|
D|---------------------------|
A|-10--7--9r10r-10--7--9r10r-|
E|---00-00--------00-00------|
B|---------------------------|

(3:25)
G|------------------|
D|------------------|
A|------------------|
E|-7~~~6~~~---------|
B|---------8~~~7~~~-|

G|-----------------------------------------------------------------------------|
D|-----------------------------------------------------------------------------|
A|-----------------------------------------------------------------------------|
E|---7p5h7--9p7h9--10r---10p9h10--12p10h12-12h14p13--12--10--9--14--12--10-6~~-|
B|-0------0------0-----0--------0---------0--------0---0---0--0---0---0---0----|(x2)

G|-----------------------------------------------------------------------------|
D|-----------------------------------------------------------------------------|
A|---7p5h7--9p7h9--10r---10p9h10--12p10h12-12h14p13--12--10--9--14--12--10-6~~-|
E|-----------------------------------------------------------------------------|
B|-0------0------0-----0--------0---------0--------0---0---0--0---0---0---0----|(x2)

(3:56)
G|------------------------------------------------------------------------|
D|------------------------------------------------------------------------|
A|------------------------------------------------------------------------|
E|------------------------------------------------------------------------|
B|-0-0-0-12--12-0-0-0-12--12-0-0-0-11--11-0-0-0-11--11-0h20h20h20h30h30h3-|(x2)

Bass solo part 1
G|--------------------------------------------------------------------|
D|-------7-------------7--------------7-7-7---------------------------|
A|7-9-10---10-9-7-9-10---10-10-7-9-10-------10-10-10-9-9-9-7-7-7-6-6-6|
E|--------------------------------------------------------------------|
B|--------------------------------------------------------------------|

-------------12--12--12--11\---|
-------------------------------|
-7-7-7-6-6-6-------------------|
-------------------------------|
-------------------------------|


G|---------------------------------------------------------------------|
D|-------7-------------7--------------7-7-7----------------------------|
A|7-9-10---10-9-7-9-10---10-10-7-9-10-------10-10-10-9-9-9-7-7-7-6-6-6-|
E|---------------------------------------------------------------------|
B|---------------------------------------------------------------------|

G|11-11-11-11-11-11-8h9h10h11-8h9h10h11-8h9h10h11-8h9h10h11-|
D|----------------------------------------------------------|
A|----------------------------------------------------------|
E|----------------------------------------------------------|
B|----------------------------------------------------------|

(4:24)
G|---------------|
D|---------------|
A|---------------|
E|---------------|
B|-0r-0r--0r-0r--|

G|-----------------------------------------------------------------------------|
D|-----------------------------------------------------------------------------|
A|---7p5h7--9p7h9--10r---10p9h10--12p10h12-12h14p13--12--10--9--14--12--10-6~~-|
E|-----------------------------------------------------------------------------|
B|-0------0------0-----0--------0---------0--------0---0---0--0---0---0---0----|(x2)

G|------------------------------------------------------------------------|
D|------------------------------------------------------------------------|
A|------------------------------------------------------------------------|
E|------------------------------------------------------------------------|
B|-0-0-0-12--12-0-0-0-12--12-0-0-0-11--11-0-0-0-11--11-0h20h20h20h30h30h3-|(x2)

(5:01)
Bass solo part 2
G|--16--------14------------------------------------------------|
D|14----17-16----13-14------------------------------------------|
A|----------------------7h9h10-6h7h9-7h9h10-6h7h9-10--10--10--9-|
E|--------------------------------------------------------------|
B|--------------------------------------------------------------|

G|----------------------------------------------------------------------------------|
D|-------7-7-7------------------------7-7-7-9\--------------------------------------|
A|7-9-10-------7-9-10-10-10-10-7-9-10----------7-7-7-6-6-6-9-9-9-7-7-7-10-10-10-12\-|
E|----------------------------------------------------------------------------------|
B|-----------------------------------------------------------------------8--8--8----|

G|----|
D|----|
A|----|
E|----|
B|-0--|

(5:20)
G|-------------------------------------------------|
D|-------------------------------------------------|
A|---------0-4-7-5-4---------------0-4-5-4-2-------|
E|-----0-2-----------7-5-3-----0-2-----------5-3-2-|
B|-0-3---------------------0-3---------------------|

G|-------------------------------------------------------------------------|
D|-------------------------------------------------------------------------|
A|-------------------------------------------------------------------------|
E|-7-7-7-7r5-5-5-5r3-3-3-3r2-2-2-2r0-0-0-0r2-2-2-2r3-3-3-3-3-3-5-5-5-5-5-5-|
B|-------------------------------------------------------------------------|

G|-------------------------------------------------------------------------------|
D|-------------------------------------------------------------------------------|
A|-------------------------------------------------10-10-10-10-10-10-9-9-9-9-9-9-|
E|-7-7-7-7r5-5-5-5r3-3-3-3r2-2-2-2r0-0-0-0r2-2-2-2r------------------------------|
B|-------------------------------------------------------------------------------|

(5:36)
G|------------------------------------------|
D|------------------------------------------|
A|------------------------------------------|
E|------------------------------------------|
B|-0---3-3--8---7\-2--0---3-3--8---7--7-7-7-|

G|-----------------------------------------------|
D|-----------------------------------------------|
A|-----------------------------------------------|
E|-----------------------------------------------|
B|-0---3-3--8---7\-2--0---3-3--8---7--7--2222222-|

G|---------------------------------|
D|---------------------------------|
A|----------------------/5--4--5-0-|
E|-----------0--2--5-3-------------|
B|-0--0-2-3------------------------| (x6)

G|------|
D|------|
A|------|
E|------|
B|-0----|

            
            
Suggest correction
Creating personal tab
Creating personal tab
You can edit any tab online and save it as your Personal.

You can edit, replace or remove any tab part or add personal notes – all changes will be seen only by you.

Personal tabs can be accessed anytime from any device, even offline.
Learn more »
Give kudos to tab author, rate the tab!
1 2 3 4 5
comments
print report bad tab
guest
You may want to rate the tab now too:
select rating
Wanna post a correction for this tab? Suggest correction