Oops, an error
Loading. Please wait.

Tread The Floods intro tab

version 2
version 2
by Trivium
5,593 views 3 this week
2 commentsread comments
1 2 3 4 5
x 4
add to favorites
×
Save as Personal and add changes to this tab that will be seen only by you. Learn more ›
×
You can save this tab as Personal to edit and correct it or add notes. All changes will be seen only by you. Learn more »
launch autoscroll
font size
0
reset
how to read this tab
guitar tuner
backing track
0:00
0:00
edit
Autoscroll
slow
fast
+/-
esc
set tempo
stop
Difficulty
intermediate
This is just the intro, i worked it out myself and it sounds right to me.

E|-------------------------------------------|
B|-------------------------------------------|
G|-------12-0-0-7-0-0-8-0-0-10-0-0-7h8p7\5---|
D|-----------------------------------------8-|
A|-------------------------------------------|
E|-------------------------------------------|


E|-------------------------------------------|
B|------------------------11-------10--------|
G|-------12-0-0-7-0-0-8-0----8-0-0----10-0-0-|
D|-------------------------------------------|
A|-------------------------------------------|
E|-------------------------------------------|


E|-------------------------------------------|
B|-------------------------------------------|
G|-------12-0-0-7-0-0-8-0-0-10-0-0-7h8p7\5---|
D|-----------------------------------------8-|
A|-------------------------------------------|
E|-------------------------------------------|


E|------------------------11p10p8-----------------------|
B|--------------------------------11p10p8---------------|
G|-------12-0-0-7-0-0-8-0-----------------10p8p7--------|
D|-----------------------------------------------10p8p7-|
A|------------------------------------------------------|
E|------------------------------------------------------|


E|-------------------------------------------|
B|-------------------------------------------|
G|-------12-0-0-7-0-0-8-0-0-10-0-0-7h8p7\5---|
D|-----------------------------------------8-|
A|-------------------------------------------|
E|-------------------------------------------|


E|-------------------------------------------|
B|------------------------11-------10--------|
G|-------12-0-0-7-0-0-8-0----8-0-0----10-0-0-|
D|-------------------------------------------|
A|-------------------------------------------|
E|-------------------------------------------|


E|-------------------------------------------|
B|-------------------------------------------|
G|-------12-0-0-7-0-0-8-0-0-10-0-0-7h8p7\5---|
D|-----------------------------------------8-|
A|-------------------------------------------|
E|-------------------------------------------|


E|------------------------11p10p8-----------------------------------------|
B|--------------------------------11p10p8---------------------------------|
G|-------12-0-0-7-0-0-8-0-----------------10p8p7--------8p7p5-------------|
D|-----------------------------------------------10p8p7-------8p7p5-------|
A|------------------------------------------------------------------8p6p5-|
E|------------------------------------------------------------------------|


  ------|
  ------|
  ------|
  ------|
  ------|
  8p6p5-|

ENJOY!!!!!

BEN SULLY
Suggest correction
Creating personal tab
Creating personal tab
You can edit any tab online and save it as your Personal.

You can edit, replace or remove any tab part or add personal notes – all changes will be seen only by you.

Personal tabs can be accessed anytime from any device, even offline.
Learn more »
comments
print report bad tab
2 comments total.
0 reply
Majin Gaara 1,122 Oct 25, 2006 07:31 PM

Yea for the most part it is correct but there is still a few error in there you need to fix

0 reply
.CoB. 10 Oct 08, 2007 06:11 PM

thanks god about time someone got that one part right. but the end pull off part you got the last two wrong on the E and A its 10-8-6 instead of 10-8-7 good job though 5 stars :)

guest
Wanna post a correction for this tab? Suggest correction