Oops, an error
Loading. Please wait.

Tread The Floods solo tab

version 1
version 1
by Trivium
1,534 views 3 this week
6 commentsread comments
1 2 3 4 5
x 6
add to favorites
×
Save as Personal and add changes to this tab that will be seen only by you. Learn more ›
×
You can save this tab as Personal to edit and correct it or add notes. All changes will be seen only by you. Learn more »
launch autoscroll
font size
0
reset
how to read this tab
guitar tuner
backing track
0:00
0:00
edit
Autoscroll
slow
fast
+/-
esc
set tempo
stop
Difficulty
Chyea its kinda crazy

-13-13-0-0-13-0-12-0-0-12-0-10-10-0-0-10-0-8-7h8p7-8-8-0-0-8-0-7-5h7p5---|
-------------------------------------------------------------------------|
-------------------------------------------------------------------------|
-------------------------------------------------------------------------|
-------------------------------------------------------------------------|
-------------------------------------------------------------------------|

--------------------------------------------------------------------------|
-8-8b~-8~------------------------------------------10~-8~-6~-5~-----------|
-----------------------------------------/10-9-7-9------------------------|
-----------------------------------5h7------------------------------------|
------------------5h7h8-7Tr8-5h7h8----------------------------------------|
------------5h7h8---------------------------------------------------------|

riff a          x3                         riff a again x2~
---------------------|--5----------------|--------------------------|
---------------------|----8-6-5-8-6-5----|--------------------------|
---10-9-10-7-10-9-10-|----------------7--|--------------------------|
-7-------------------|-------------------|--------------------------|
---------------------|-------------------|--------------------------|
---------------------|-------------------|--------------------------|

-------------------------------------------------------------------------|
-------------------------------------------------------------------------|
---------------------------------------------12h14h16----------14h16h17--|
---------12h14h15----------14h15h17-12h14h15----------14h15h17-----------|
12h14h15----------14h15h17-----------------------------------------------|
-------------------------------------------------------------------------|

riff b   x 3
-------------------------|--18-17-15----17-15----------------------|
----18-17-18-15-18-17-18-|-----------18-------18-17----------------|
-14----------------------|-----------------------------------------|
-------------------------|-----------------------------------------|
-------------------------|-----------------------------------------|
-------------------------|-----------------------------------------|

riff b x 2   trem pick twice each
-----------|-------------------------------------------------------|
-----------|--18-20-17-18-15-17-13-15------------------------------|
-----------|-------------------------------------------------------|
-----------|-------------------------------------------------------|
-----------|-------------------------------------------------------|
-----------|-------------------------------------------------------|

double solo
|------------------------------------------------------------------|
|----------17-15---------------------17-15-17-20-18-17~------------|
|-14-16-17-------17-16-17~--14-16-17-------------------------------|
|------------------------------------------------------------------|
|------------------------------------------------------------------|
|------------------------------------------------------------------|
|
|------------------------------------------------------------------|
|------------------------------------------------------------------|
|------------------------------------------------------------------|
|----------14-12---------------------14-12-14-17-15-14-------------|
|-12-14-15-------15-14-15~--12-14-15-------------------------------|
|------------------------------------------------------------------|
Suggest correction
Creating personal tab
Creating personal tab
You can edit any tab online and save it as your Personal.

You can edit, replace or remove any tab part or add personal notes – all changes will be seen only by you.

Personal tabs can be accessed anytime from any device, even offline.
Learn more »
comments
print report bad tab
6 comments total. Showing first comments.
0 reply
zackvalo16 119 Oct 21, 2006 07:22 PM

hey man this is pretty good why don't you have a go at the Entrance of the Conflagration solo..ive been dyin to get that one...lol...5 stars bro...

0 reply
Majin Gaara 1,122 Nov 02, 2006 04:56 PM

Most of its wrong

0 reply
flam1nic31289 16 Nov 10, 2006 06:28 PM

The start of the solo isn't correct, and the rest isn't too accurate either. I praise you for trying though. It IS hard to write a tab. I'm posting my version up soon if you wanna check it out.

guest
Wanna post a correction for this tab? Suggest correction