Oops, an error
Loading. Please wait.

Tread The Floods solo tab

version 2
version 2
by Trivium
1,910 views 1 this week
4 commentsread comments
1 2 3 4 5
x 7
add to favorites
×
Save as Personal and add changes to this tab that will be seen only by you. Learn more ›
×
You can save this tab as Personal to edit and correct it or add notes. All changes will be seen only by you. Learn more »
launch autoscroll
font size
0
reset
how to read this tab
guitar tuner
backing track
0:00
0:00
edit
Autoscroll
slow
fast
+/-
esc
set tempo
stop
Author
Difficulty
Key:
x  = Mute String
PM = Palm Mute
/  = Slide Upwards
\  = Slide Downwards
b  = Bend note
Fb = Full bend
h  = Hammer On
p  = Pull Off
~  = Vibrato
ps = Pick Scrape
PH = Pinch harmonic
_  = Tremolo

This is my version of a great solo played by Corey Beaulieu.

Tremolo pick each note: __ __ __ __ __ __ __ __ _ __ _ __ __ _ __ _ __
e|---------------------------------------------------------------------|
B|-16----16-15----15-13----13----13-11----11-10---11---11-10---10-8----|
G|----12-------12-------12----10-------10-------8----8-------8------10-|
D|---------------------------------------------------------------------|
A|---------------------------------------------------------------------|
E|---------------------------------------------------------------------|

   __     ~~~~~~~~               ~~~~~~~~
e|---------------------------------------------------------------------|
B|---------------------------------------------------------------------|
G|-10Fb10-10-----------------------------------------------------------|
D|-------------------------------------------------10-13-12h13p12-10---|
A|-----------------------3-6-5b6b5--------10-12-13---------------------|
E|-----------------3-5-6-----------------------------------------------|

                  ~~~~~~~~
e|---------------------------------------------------------------------|
B|---------------------------------------------------------------------|
G|---------------------------------------------------------------------|
D|-12-/17-15-13-12------------13-12-13-10-13-12-13----13-12-13-10-13---|
A|-------------------------10----------------------10------------------|
E|---------------------------------------------------------------------|

e|---------------------------------------------------------------------|
B|---------------------------------------------------------------------|
G|---------------------------------------------------------------------|
D|-12-13----13-12-13-10-13-12-10-17-15-13-15-13-12\----13-12-13-10-13--|
A|-------10-----------------------------------------10-----------------|
E|---------------------------------------------------------------------|

                                 If anyone can help me figure this slur
e|---------------------------------------------------------------------|
B|---------------------------------------------------------------------|
G|----------------------------------------???????---------???????------|
D|-12-13----13-12-13-10-13-12-13-????????---------???????---------????-|
A|-------10------------------------------------------------------------|
E|---------------------------------------------------------------------|

 out, it would be appreciated.
e|---------------------------------------------------------------------|
B|---------------------------------------------------------------------|
G|-----???????---------???????----20-19-20-17-20-19-20----20-19-20-17--|
D|-???---------???????---------17----------------------17--------------|
A|---------------------------------------------------------------------|
E|---------------------------------------------------------------------|


e|---------------------------------------------------------------------|
B|----------------------------------20-18-16-16-18-16-15\--------------|
G|-20-19-20----20-19-20-17-19-17-17--------------------------20-19-20--|
D|----------17--------------------------------------------17-----------|
A|---------------------------------------------------------------------|
E|---------------------------------------------------------------------|

                                       __ __ __ __ __ __ __ __
e|---------------------------------------------------------------------|
B|---------------------------------------------------------------------|
G|-17-20-19-20----20-19-20-17-20-19-20-17-19-15-17-14-15-12-14-12-14---|
D|-------------17----------------------------------------------x--x----|
A|-------------------------------------------------------------10-12---|
E|---------------------------------------------------------------------|

      ~~                   ~~~~~~~~                             ~~~~~~~
e|---------------------------------------------------------------------|
B|---------------------------------------------------------------------|
G|-14/15-15/19-17-15-14-14/15-------12-14-15-15/19-17-19-/22-20-19-----|
D|-x-----x-----x--x--x--x-----------x--x--x--x-----x--x--/---x--x------|
A|-12/13-13/17-15-13-12-12/13-------10-12-13-13/17-15-17-/20-18-17-----|
E|---------------------------------------------------------------------|

That's it guys. The only part that I had trouble tabbing was that one slurred section
I can't seem to get the notes right. I inserted ?'s because I didn't want to tab anything
wasn't too sure of. When I figure out those notes, I'll put em in. If anyone can help me 
I'm open for suggestions also. Thanks and enjoy!

            
            
Suggest correction
Creating personal tab
Creating personal tab
You can edit any tab online and save it as your Personal.

You can edit, replace or remove any tab part or add personal notes – all changes will be seen only by you.

Personal tabs can be accessed anytime from any device, even offline.
Learn more »
comments
print report bad tab
4 comments total. Showing first comments.
0 reply
HerVoiCeResIdEs 103 Nov 23, 2006 06:35 AM

this is a bad assed tab..i was bout to put mine up but w.e, 5 stars

0 reply
Td_Nights 186 Jun 02, 2007 10:58 AM

except for the slur section this kicks ass.

0 reply
espltdmmv07fboy 140 Jul 29, 2009 06:27 AM

???????????????????????????????????

e|----------------------------------6-8-10-------8-10-11--| ??
B|---------8-10-------8-10-11-6-8-10------8-10-11---------|
G|--7-8-10------7-8-10------------------------------------|
D|10------------------------------------------------------|
A|--------------------------------------------------------|
E|--------------------------------------------------------|

guest
You may want to rate the tab now too:
select rating
Wanna post a correction for this tab? Suggest correction