Oops, an error
Loading. Please wait.

Tread The Floods tab

version 2
version 2
by Trivium
2,010 views 1 this week
14 commentsread comments
1 2 3 4 5
x 8
add to favorites
×
Save as Personal and add changes to this tab that will be seen only by you. Learn more ›
×
You can save this tab as Personal to edit and correct it or add notes. All changes will be seen only by you. Learn more »
launch autoscroll
font size
0
reset
how to read this tab
guitar tuner
backing track
0:00
0:00
edit
Autoscroll
slow
fast
+/-
esc
set tempo
stop
The other guys intro missed out a lot. Awesome song

Ive borrowed from the other tabs for bits.

Matt and Corey both in drop d

Intro
|---------------------------------------|--------------------------------|
|o--------------------------------------|----------------11-8----10-8----|
|--12-0-0-7-0-0-8-0-0-10-0-0-7h8p7------|-12-0-0-7-0-0-8-----0-0-----0-0-|
|----------------------------------10-8-|--------------------------------|
|o--------------------------------------|--------------------------------|
|---------------------------------------|--------------------------------|
|
|--------------------------------------|--------------------------------|
|--------------------------------------|--------------------------------|
|--------------------------------------|--------------------------------|
|-5~~~~--------------------------------|-7~~~~--------------------------|
|-5~~~~--------------------------------|-7~~~~--------------------------|
|-5~~~~--------------------------------|-7~~~~--------------------------|
                           
                                                             _____________ 
                                                          |2._____________
                                                          |1.
|--------------------------------------|------------------|11p10p8--------|
|--------------------------------------|------------------|-------11p10p8-|
|-12-0-0-7-0-0-8-0-0-10-0-0-7h8p7------|-12-0-0-7-0-0-8-0-|---------------|
|---------------------------------10-8-|------------------|---------------|
|--------------------------------------|------------------|---------------|
|--------------------------------------|------------------|---------------|
|
|--------------------------------------|----------------------------------|
|--------------------------------------|----------------------------------|
|--------------------------------------|----------------------------------|
|-8~~~~--------------------------------|-10~~~~---------------------------|
|-8~~~~--------------------------------|-10~~~~---------------------------|
|-8~~~~--------------------------------|-10~~~~---------------------------|

_______________________________________.2
_______________.1
|---------------|-----------------------|
|--------------o|-----------------------|
|-10p8p7--------|-8p7p5-----------------|
|-------10p8p7--|------8p7p5------------|
|--------------o|-----------8p6p5-------|
|---------------|----------------10p8p7-|
|
|---------------|-----------------------|
|--------------o|-----------------------|
|---------------|-----------------------|
|-8----7--------|-7---------------------|
|-8----7-------o|-7---------------------|
|-8----7--------|-7---------------------|
on 2nd time only play the 8 power chord in the 1st bar and play the 7 in the second if that makes sense!

Verse

|-----------------------|---------------|-------------|
|-----------------------|---------------|-------------|
|-----------------------|---------------|-------------| second time on third
|--5-------------10-6-8-|-5-------------|-------------| bar i cant figure  
|--5-------------10-6-8-|-5-------------|---6---------| it out sorry
|--5-5-5-5-5-5-5-10-6-8-|-5-5-5-5-5-5-5-|-6---6-5-6-3-|
|PM  . . . . . . .          . . . . . . 

Chorus (this might be really wrong sorry)
|-------------------------------------------|---------|
|-------------------------------------------|---------|
|------------7--------------7------------10-|---------|
|-------------------------------------------|---------|
|-5-5-5-5-5-5----5-5-5-5-5-5---8-8-8-8-8-8--|-3-8-7-5-|
|-5-5-5-5-5-5----7-7-7-7-7-7---8-8-8-8-8-8--|-3-8-7-5-|

Solo 
Copied of the other guy

-13-13-0-0-13-0-12-0-0-12-0-10-10-0-0-10-0-8-7h8p7-8-8-0-0-8-0-7-5h7p5---|
-------------------------------------------------------------------------|
-------------------------------------------------------------------------|
-------------------------------------------------------------------------|
-------------------------------------------------------------------------|
-------------------------------------------------------------------------|

--------------------------------------------------------------------------|
-8-8b~-8~------------------------------------------10~-8~-6~-5~-----------|
-----------------------------------------/10-9-7-9------------------------|
-----------------------------------5h7------------------------------------|
------------------5h7h8-7Tr8-5h7h8----------------------------------------|
------------5h7h8---------------------------------------------------------|

riff a          x3                         riff a again x2~
---------------------|--5----------------|--------------------------|
---------------------|----8-6-5-8-6-5----|--------------------------|
---10-9-10-7-10-9-10-|----------------7--|--------------------------|
-7-------------------|-------------------|--------------------------|
---------------------|-------------------|--------------------------|
---------------------|-------------------|--------------------------|

-------------------------------------------------------------------------|
-------------------------------------------------------------------------|
---------------------------------------------12h14h16----------14h16h17--|
---------12h14h15----------14h15h17-12h14h15----------14h15h17-----------|
12h14h15----------14h15h17-----------------------------------------------|
-------------------------------------------------------------------------|

riff b   x 3
-------------------------|--18-17-15----17-15----------------------|
----18-17-18-15-18-17-18-|-----------18-------18-17----------------|
-14----------------------|-----------------------------------------|
-------------------------|-----------------------------------------|
-------------------------|-----------------------------------------|
-------------------------|-----------------------------------------|

riff b x 2   trem pick twice each
-----------|-------------------------------------------------------|
-----------|--18-20-17-18-15-17-13-15------------------------------|
-----------|-------------------------------------------------------|
-----------|-------------------------------------------------------|
-----------|-------------------------------------------------------|
-----------|-------------------------------------------------------|

double solo
|------------------------------------------------------------------|
|----------17-15---------------------17-15-17-20-18-17~------------|
|-14-16-17-------17-16-17~--14-16-17-------------------------------|
|------------------------------------------------------------------|
|------------------------------------------------------------------|
|------------------------------------------------------------------|
|
|------------------------------------------------------------------|
|------------------------------------------------------------------|
|------------------------------------------------------------------|
|----------14-12---------------------14-12-14-17-15-14-------------|
|-12-14-15-------15-14-15~--12-14-15-------------------------------|
|------------------------------------------------------------------|

cant be bothered with anything else in it

            
            
Suggest correction
Creating personal tab
Creating personal tab
You can edit any tab online and save it as your Personal.

You can edit, replace or remove any tab part or add personal notes – all changes will be seen only by you.

Personal tabs can be accessed anytime from any device, even offline.
Learn more »
comments
print report bad tab
14 comments total. Showing first comments.
0 reply
METSOAD 1,632 Nov 07, 2006 10:26 PM

it is correct but it is in standard tuning and there is that odd octaving bit which goes:

e|----------------------
B|----------------------
G|8/7-5/3-5----8/7-5/3--
D|x/x-x/x-x----x/x-x/x-5
A|6/5-3/1-3----6/5-3/1-x
E|---------------------3

0 reply
master of music 243 Nov 08, 2006 06:12 AM

cheers

0 reply
master of music 243 Nov 08, 2006 06:13 AM

someone rate it

guest
You may want to rate the tab now too:
select rating
Wanna post a correction for this tab? Suggest correction