Oops, an error
Loading. Please wait.

Tread The Floods tab

version 3
version 3
by Trivium
2,217 views 1 this week
8 commentsread comments
1 2 3 4 5
2 more votes to show rating
add to favorites
×
Save as Personal and add changes to this tab that will be seen only by you. Learn more ›
×
You can save this tab as Personal to edit and correct it or add notes. All changes will be seen only by you. Learn more »
launch autoscroll
font size
0
reset
how to read this tab
guitar tuner
backing track
0:00
0:00
edit
Autoscroll
slow
fast
+/-
esc
set tempo
stop
GIVE MOST OF THE CREDIT TO flam1nic31289 FOR MAKING THE SOLO



Tuning is STANDERED
Intro/corus
Guitar 1
|---------------------------------------|--------------------------------|
|o--------------------------------------|----------------11-8----10-8----|
|--12-0-0-7-0-0-8-0-0-10-0-0-7h8p7------|-12-0-0-7-0-0-8-----0-0-----0-0-|
|----------------------------------10-8-|--------------------------------|
|o--------------------------------------|--------------------------------|
|---------------------------------------|--------------------------------|

Guitar 2
|--------------------------------------|--------------------------------|
|--------------------------------------|--------------------------------|
|--------------------------------------|--------------------------------|
|-5~~~~--------------------------------|-7~~~~--------------------------|
|-5~~~~--------------------------------|-7~~~~--------------------------|
|-3~~~~--------------------------------|-5~~~~--------------------------|
 
Guitar 1
|---------------------------------------|--------------------------------|
|o--------------------------------------|----------------11-8----10-8----|
|--12-0-0-7-0-0-8-0-0-10-0-0-7h8p7------|-12-0-0-7-0-0-8-----0-0-----0-0-|
|----------------------------------10-8-|--------------------------------|
|o--------------------------------------|--------------------------------|
|---------------------------------------|--------------------------------|

Guitar 2
|--------------------------------------|----------------------------------|
|--------------------------------------|----------------------------------|
|--------------------------------------|----------------------------------|
|-8~~~~--------------------------------|-10~~~~---------------------------|
|-8~~~~--------------------------------|-10~~~~---------------------------|
|-6~~~~--------------------------------|--8~~~~---------------------------|

Guitar 1

|---------------------------------------|
|---------------------------------------|
|-10p8p7----------8p7p5-----------------|
|-------10p8p7---------8p7p5------------|
|---------------------------8p6p5-------|
|--------------------------------10p8p7-|

Guitar 2
|---------------|-----------------------|
|--------------o|-----------------------|
|---------------|-----------------------|
|-8----7--------|-7---------------------|
|-8----7-------o|-7---------------------|
|-6----5--------|-5---------------------|

Verse
|-----------------------|--------------|-------------|
|-----------------------|--------------|-------------|
|-----------------------|--------------|-------------| 
|--5-------------10-6-8-|-5------------|-------------|   
|--5-------------10-6-8-|-5------------|---6---------| 
|--3-3-3-3-3-3-3--8-4-6-|-3-3-3-3-3-3-3|-6---6-5-6-3-|
pm . . . . . . .          . . . . . . .

Then play verse the chorus

Solo 
GIVE CREDIT TO flam1nic31289 

Tremolo pick each note: __ __ __ __ __ __ __ __ _ __ _ __ __ _ __ _ __
e|---------------------------------------------------------------------|
B|-16----16-15----15-13----13----13-11----11-10---11---11-10---10-8----|
G|----12-------12-------12----10-------10-------8----8-------8------10-|
D|---------------------------------------------------------------------|
A|---------------------------------------------------------------------|
E|---------------------------------------------------------------------|

   __     ~~~~~~~~               ~~~~~~~~
e|---------------------------------------------------------------------|
B|---------------------------------------------------------------------|
G|-10Fb10-10-----------------------------------------------------------|
D|-------------------------------------------------10-13-12h13p12-10---|
A|-----------------------3-6-5b6b5--------10-12-13---------------------|
E|-----------------3-5-6-----------------------------------------------|

                  ~~~~~~~~
e|---------------------------------------------------------------------|
B|---------------------------------------------------------------------|
G|---------------------------------------------------------------------|
D|-12-/17-15-13-12------------13-12-13-10-13-12-13----13-12-13-10-13---|
A|-------------------------10----------------------10------------------|
E|---------------------------------------------------------------------|

e|---------------------------------------------------------------------|
B|---------------------------------------------------------------------|
G|---------------------------------------------------------------------|
D|-12-13----13-12-13-10-13-12-10-17-15-13-15-13-12\----13-12-13-10-13--|
A|-------10-----------------------------------------10-----------------|
E|---------------------------------------------------------------------|

                                 If anyone can help me figure this slur
e|---------------------------------------------------------------------|
B|---------------------------------------------------------------------|
G|----------------------------------------???????---------???????------|
D|-12-13----13-12-13-10-13-12-13-????????---------???????---------????-|
A|-------10------------------------------------------------------------|
E|---------------------------------------------------------------------|

 out, it would be appreciated.
e|---------------------------------------------------------------------|
B|---------------------------------------------------------------------|
G|-----???????---------???????----20-19-20-17-20-19-20----20-19-20-17--|
D|-???---------???????---------17----------------------17--------------|
A|---------------------------------------------------------------------|
E|---------------------------------------------------------------------|


e|---------------------------------------------------------------------|
B|----------------------------------20-18-16-16-18-16-15\--------------|
G|-20-19-20----20-19-20-17-19-17-17--------------------------20-19-20--|
D|----------17--------------------------------------------17-----------|
A|---------------------------------------------------------------------|
E|---------------------------------------------------------------------|

                                       __ __ __ __ __ __ __ __
e|---------------------------------------------------------------------|
B|---------------------------------------------------------------------|
G|-17-20-19-20----20-19-20-17-20-19-20-17-19-15-17-14-15-12-14-12-14---|
D|-------------17----------------------------------------------x--x----|
A|-------------------------------------------------------------10-12---|
E|---------------------------------------------------------------------|

      ~~                   ~~~~~~~~                             ~~~~~~~
e|---------------------------------------------------------------------|
B|---------------------------------------------------------------------|
G|-14/15-15/19-17-15-14-14/15-------12-14-15-15/19-17-19-/22-20-19-----|
D|-x-----x-----x--x--x--x-----------x--x--x--x-----x--x--/---x--x------|
A|-12/13-13/17-15-13-12-12/13-------10-12-13-13/17-15-17-/20-18-17-----|
E|---------------------------------------------------------------------|

DONE!!!!!

            
            
Suggest correction
Creating personal tab
Creating personal tab
You can edit any tab online and save it as your Personal.

You can edit, replace or remove any tab part or add personal notes – all changes will be seen only by you.

Personal tabs can be accessed anytime from any device, even offline.
Learn more »
Give kudos to tab author, rate the tab!
1 2 3 4 5
comments
print report bad tab
8 comments total. Showing first comments.
0 reply
Magic Noden 312 Jan 25, 2007 06:40 AM

The verse shoul be this.

Verse
|-----------------------|--------------|-------------|
|-----------------------|--------------|-------------|
|-----------------------|--------------|-------------|
|--5-------------10-6-8-|-5------------|-------------|
|--5-------------10-6-8-|-5------------|---6---------|
|--3-3-3-3-3-3-3--8-4-6-|-3-3-3-3-3-3-3|-6---6-5-6-3-|
pm . . . . . . . . . . . . . .

0 reply
HerVoiCeResIdEs 103 Jan 25, 2007 11:16 AM

this is wrong..especially the solo

0 reply
Silent_gojira 102 Jan 25, 2007 12:58 PM

all right ill switch thnx

guest
You may want to rate the tab now too:
select rating
Wanna post a correction for this tab? Suggest correction