Oops, an error
Loading. Please wait.

Unrepentant tab

version 1
version 1

Whole song

Interactive

by Trivium
6,019 views 3 this week
10 commentsread comments
1 2 3 4 5
x 11
add to favorites
×
Save as Personal and add changes to this tab that will be seen only by you. Learn more ›
×
You can save this tab as Personal to edit and correct it or add notes. All changes will be seen only by you. Learn more »
launch autoscroll
font size
0
reset
how to read this tab
guitar tuner
edit
Autoscroll
slow
fast
+/-
esc
set tempo
stop
Author
Unregistered
Trivium
Unrepentant
The Crusade

intro riff
E|---------------------------------------------------------------------|
B|---------------------------------------------------------------------|
G|---------------------------------------------------------------------|
D|-4-------4-------4-------5-----5-4-------4--------------4------------|
A|--------------------------------------------------------2-------5----|
E|---2-0-2---2-0-2---2-0-2---2-0-----2-0-2---2-0-2--2-2-2---2-2-2-3----|

E|---------------------------------------------------------------------|
B|---------------------------------------------------------------------|
G|---------------------------------------------------------------------|
D|-4-------4-------4-------5-----5-4-------4----------------0-2-0------|
A|------------------------------------------------------2-3-------2----|
E|---2-0-2---2-0-2---2-0-2---2-0-----2-0-2---2-0-2--2-3----------------|

E|------------------------------------------------------------------------|
B|------------------------------------------------------------------------|
G|------------------------------------------------------------------------|
D|-4-------4-------4-------5-----5-4-------4----------------0-2-0---------|
A|------------------------------------------------------2-3-------2-5-7-5-|
E|---2-0-2---2-0-2---2-0-2---2-0-----2-0-2---2-0-2--2-3-------------------|

E|----------|
B|----------|
G|----------|
D|----------|
A|-3-2------|
E|-----3-2--|

E|---------------------------------------------------------------|
B|---------------------------------------------------------------|
G|---------------------------------------------------------------|
D|-----------------------------------------------------5---------|
A|-----------------------3-----5-----------------------3---------|
E|-2-2-2-2-2-3-2--2-2-3----3-2----2-2-2-2-2-3-2--2-2-2-----------|

E|----------------------------------------------------------------|
B|----------------------------------------------------------------|
G|----------------------------------------------------------------|
D|-----------------------------------------------------4----------|
A|-----------------------3-----5-----------------------2-------5--|
E|-2-2-2-2-2-3-2--2-2-3----3-2----2-2-2-2-2-3-2--2-2-2---2-2-2-3--|

 I havent figured out the part after this so we'll just skip that to the part after.

E|------------------------------------------------------------|
B|------------------------------------------------------------|
G|-11-----7------11-----14-----12--12--12-----9-----6-----11--|
D|------------------------------------------------------------|X2
A|-9------5------9------12-----10--10--10-----7-----4-----9---|
E|------------------------------------------------------------|

E|-----------------------------------------------------------------------|
B|-----------------------------------------------------------------------|
G|-4--4--4--6--6--6--7--7-----11-11-11--9--9--9--11-11-14-14-14-12-12-12-|
D|------------------------X2---------------------------------------------|
A|-2--2--2--4--4--4--5--5-----9--9--9---7--7--7--9--9--12-12-12-10-10-10-|
E|-----------------------------------------------------------------------|

E|--------|
B|--------|
G|-11-11--|
D|--------|X2
A|-9--9---|
E|--------|

E|------------------------------------------------------------------|
B|------------------------------------------------------------------|
G|------------------------------------------------------------------|
D|------------------------------------------------------------------|
A|-----9-7-9-----9-7-9----9-7-9---9-7-9-12-11-----------------------|
E|--2---------2--------5-------7------------------------------------|

E|----------------------------------------------------------------|
B|----------------------------------------------------------------|
G|----------------------------------------------------------------|
D|----------------------------------------------------------------|
A|--4--9-7-9--4--9-7-9--7--9-7-9--9--9-7-9-12-11------------------|
E|--2---------2---------5---------7-------------------------------|

 yeah thats pretty much it, you should be able to figure it out from there 
 
 later pplz ;) 

            
            
Suggest correction
Creating personal tab
Creating personal tab
You can edit any tab online and save it as your Personal.

You can edit, replace or remove any tab part or add personal notes – all changes will be seen only by you.

Personal tabs can be accessed anytime from any device, even offline.
Learn more »
comments
print report bad tab
10 comments total. Showing first comments.
0 reply
Majin Gaara 1,122 Oct 13, 2006 07:42 PM

this is on a 6 string thank god. Anyways im workin on a guitar pro tab of this so yay

0 reply
dillzaster 186 Nov 19, 2006 12:04 AM

the riff at the end of the intro riffs is horribly wrong, but the rest is pretty good

0 reply
master of music 243 Nov 24, 2006 12:51 PM

wheres the solos

guest
Wanna post a correction for this tab? Suggest correction