Oops, an error
Loading. Please wait.

Unrepentant tab

version 2
version 2

Whole song

Interactive

by Trivium
6,038 views 6 this week
3 commentsread comments
1 2 3 4 5
x 5
add to favorites
×
Save as Personal and add changes to this tab that will be seen only by you. Learn more ›
×
You can save this tab as Personal to edit and correct it or add notes. All changes will be seen only by you. Learn more »
launch autoscroll
font size
0
reset
how to read this tab
guitar tuner
edit
Autoscroll
slow
fast
+/-
esc
set tempo
stop
Author
INTRO

Matt
|---------------------------------------------------------------------|
|---------------------------------------------------------------------|
|---------------------------------------------------------------------|
|-4-------4-------4-------5-----5-4-------4--------------4------------|
|--------------------------------------------------------2-------5----|
|---2-0-2---2-0-2---2-0-2---2-0-----2-0-2---2-0-2--2-2-2---2-2-2-3----|


Both guitars 2x
|---------------------------------------------------------------------|
|---------------------------------------------------------------------|
|---------------------------------------------------------------------|
|-4-------4-------4-------5-----5-4-------4--------------4------------|
|--------------------------------------------------------2-------5----|
|---2-0-2---2-0-2---2-0-2---2-0-----2-0-2---2-0-2--2-2-2---2-2-2-3----|

|---------------------------------------------------------------------|
|---------------------------------------------------------------------|
|---------------------------------------------------------------------|
|-4-------4-------4-------5-----5-4-------4----------------9----------|
|--------------------------------------------------7-9---7---10-9-7---|
|---2-0-2---2-0-2---2-0-2---2-0-----2-0-2---2-0-2------7--------------|

On second time do this for the fill
|-------------------------------------|
|-------------------------------------|
|-------------------------------------|
|---------9---------------------------|
|-7-9---7---10-9-7-10-9-7-------------|
|-----7-------------------10-9-7-5-7--|

VERSE 2x
|--------------------------------------|
|--------------------------------------|
|--------------------------------------|
|--------------------------------------|
|-----------------------------5-----4--|
|-2-2-2-2-2-2-2-3-2--2--2-2-2---3-2----|

|--------------------------------------|
|--------------------------------------|
|--------------------------------------|
|------------------------------------5-|
|------------------------------------5-|
|-2-2-2-2-2-2-2-3-2--2--2-2-2--2-2-2-3-|

|--------------------------------------|
|--------------------------------------|
|--------------------------------------|
|--------------------------------------|
|-----------------------------5-----4--|
|-2-2-2-2-2-2-2-3-2--2--2-2-2---3-2----|

|--------------------------------------|
|--------------------------------------|
|--------------------------------------|
|----------------------------2---------|
|----------------------------0-------5-|
|-2-2-2-2-2-2-2-3-2--2--2-2-2--2-2-2-3-|

Pre chorus pt 1 2x
|----------------------------------|
|----------------------------------|
|----------------------------------|
|----------------------------------|
|-----------------4-----5-4-2-0-2--|
|-3-2-0-5-3-0-3-2---3-2------------|

|----------------------------------|
|----------------------------------|
|----------------------------------|
|----------------------------------|
|-----------------4-----5-4-2-0-2--|
|-3-2-0-5-3-0-3-2---3-2------------|

|----------------------------------|
|----------------------------------|
|----------------------------------|
|----------------------------------|
|-----------------4-----5-4-2-0-2--|
|-3-2-0-5-3-0-3-2---3-2------------|

|----------------------------------|
|----------------------------------|
|----------------------------------|
|-----------------------------2----|
|-----------------4-----5-4-2-0----|
|-3-2-0-5-3-0-3-2---3-2------------|

Pre Chorus pt2 x2
Coreys part
|------------------------------------------------------------|
|------------------------------------------------------------|
|-11-----7------11-----14-----12--12--12-----9-----6-----11--|
|------------------------------------------------------------|
|-9------5------9------12-----10--10--10-----7-----4-----9---|
|------------------------------------------------------------|
 Matts part
|---------------------------------------------------------------|
|---------------------------------------------------------------|
|---------------------------------------------------------------|
|---4-------4-------4-------4-------5-------5-5---5-----5-----5-|
|-0-2-2-2-0-2-2-2-0-2-2-2-0-2-2-2-0-2-2-2-2-2-2-0-2-2-2-2-2-2-2-|
|---------------------------------------------------------------|

|----------------------------------------------------------|
|----------------------------------------------------------|
|----------------------------------------------------------|
|-2-----------2---2---2-2-----2---2-----2-----2-2----------|
|-4-4-4-4-4-4-4-2-4-4-4-4-4-4-4-2-5-5-5-5-5-5-5-5-5-5-5-4--|
|-----------------------------------------------------3-2--|

CHORUS 2x
|----------------------------------------------------------------------------|
|----------------------------------------------------------------------------|
|-4--4--4--6--6--6--7--7-----11-11-11--9--9--9--11-11-14-14-14-12-12-12-11-11|
|------------------------X2--------------------------------------------------|
|-2--2--2--4--4--4--5--5-----9--9--9---7--7--7--9--9--12-12-12-10-10-10-9--9-|
|----------------------------------------------------------------------------|


Verse 2x
Pre Chorus pt 1 2x
pre chorus pt 2 2x 
Chorus 2 x

BREAKDOWN 

 Matt
|---------------------------------------|
|---------------------------------------|
|-----------------------------------2-1-|
|----4-2-4----4-2-4---4-2-4---4-2-4-----|
|---------------------------2-----------|
|-2--------2--------5-------------------|

on second time corey does this
|---------------------------------------|
|---------------------------------------|
|-----------------------------------2-1-|
|-4--------4--------7---------4-2-4-----|
|-4--------4--------7-------2-----------|
|-2--------2--------5-------------------|

Then play breakdown 2x

solo backing is basically these chords
|----------------| you can figure out the
|----------------|rythm yourself
|----------------|
|-----2---4---2--|
|-4---0---2---0--|
|-2--------------|

Solo Corey
|-----------------------|
|-----------------------|
|----------11-13-13-14--|
|-11-12-14--------------|
|-----------------------|
|-----------------------|

|---------------------------------------------------|
|---------------------------------------------------|
|-16b-16b-16br-14-14-16--14-13-14-13h14p13-11-13-11-|
|---------------------------------------------------|
|---------------------------------------------------|
|---------------------------------------------------|

|-----------------------------------------------------|
|-----------------------------------------------------|
|----11-----------------------------------------------|
|-14----14-14h16p14-12-14-12-11-11h12p11---12*--12-14-|
|-----------------------------------------------------|
|----------------------------------------9------------|

|-------------------------------------------12-14-16-12-14-16-|
|--------------------------12-14-15-12-14-15------------------|
|---------11-13-14-11-13-14-----------------------------------|
|-11-12-14----------------------------------------------------|
|-------------------------------------------------------------|
|-------------------------------------------------------------|


|-14-16-17-14-16-17-16-17-19-16-19-19b-19br-19-19-|
|-------------------------------------------------|
|-------------------------------------------------|
|-------------------------------------------------|
|-------------------------------------------------|
|-------------------------------------------------|

|-21-21-21-19-17-19-17-16-17-16-14-12-14-12--|
|--------------------------------------------|
|--------------------------------------------|
|--------------------------------------------|
|--------------------------------------------|
|--------------------------------------------|
                                      ~~~~~
|-10----10---------------------------------|
|----14----14-12-14-12-10-12-10----10------|
|-------------------------------13----13---|
|------------------------------------------|
|------------------------------------------|
|------------------------------------------|

Trem the whole bar
|------------------9----9-10-12--|
|---7-9-10-9-10-12---12----------|
|-9------------------------------|
|--------------------------------|
|--------------------------------|
|--------------------------------|

|-17-21-17----------17----------17-21-17----------17-|
|---------19------19--19------19--------19------19---|
|-----------18--18------18--18------------18--18-----|
|-------------19----------19----------------19-------|
|----------------------------------------------------|
|----------------------------------------------------|

|-19b-19b--|
|----------|
|----------|
|----------|
|----------|
|----------|

Then breakdown riff except with this duetting it 
2x
|--------------------------------------------|
|---------------------------------------2----|
|---2--1h2----2--1h2----2--1h2----2-1-2---4--|
|--------------------------------------------|
|--------------------0---------2-------------|
|-2--------2---------------------------------|

Then
Matt
|-------------------4---4-5-------|
|-------------5---5---5-----------|
|-6-4-6-7-6-7---7-----------------|
|---------------------------------|
|---------------------------------|
|----------------------------x\\--|
|
|Corey
|---------------------------------|
|-------------------------7-------|
|-------------6---6-9-6-9---------|
|-7-6-7-9-7-9---9-----------------|
|---------------------------------|
|----------------------------x\\--|


pre chorus pt 1 2 x
pre chorus pt 2 1 x but no guitar 
chorus 2x
outro is same as intro
Suggest correction
Creating personal tab
Creating personal tab
You can edit any tab online and save it as your Personal.

You can edit, replace or remove any tab part or add personal notes – all changes will be seen only by you.

Personal tabs can be accessed anytime from any device, even offline.
Learn more »
comments
print report bad tab
3 comments total.
0 reply
yeahdude69 10 May 22, 2007 08:18 PM

a little off at the intro,1st pre chorus, and solo but hey everything else looks good and there just minor errors that you can correct by playing to the cd and catching the diffrent notes. all in all i give you a 4

0 reply
††m@tt_heafy†† 10 May 25, 2007 10:44 AM

intro is a little off but still a good tab

0 reply
Obscur3x 10 May 05, 2014 04:44 PM

|----------------|
|----------------|
|----------------|
|-----7---9---6--|
|-4---5---7---4--|
|-2---5---7---4--|


sounds better for the rhythm during solo

guest
You may want to rate the tab now too:
select rating
Wanna post a correction for this tab? Suggest correction