Oops, an error
Loading. Please wait.

Vengeance Falls guitar pro

version 1
version 1

Whole song

Interactive

by Trivium
5,548 views 3 this week
5 commentsread comments
1 2 3 4 5
x 7
add to favorites
guitar tuner
Autoscroll
slow
fast
+/-
esc
set tempo
stop
Author
File Format
Filesize
Instruments
.gp5
102 Kb
rhythm_guitars #2, lead_guitars, basses, percussions
"Vengeance Falls"
demo version
Play now

or get full version for Free

×
Get full version now!
Learn and play this song
in Tab Pro
Try for free

or get $10 off Welcome Bonus

Get welcome bonus
Get access to Tab Pro version of “Vengeance Falls”!
Tab Pro is a premium guitar tab service, available on PC, Mac, iOS and Android
TRY FOR FREE
Your download will start in 7 seconds
×
Like this song? We have more! Follow us on Facebook for daily tips, lessons and other guitar-related content.
To download “Vengeance Falls” Guitar Pro tab click button below
Please note that you must have Guitar Pro software installed on your
computer in order to view this file.
Suggest correction
comments
report bad tab
5 comments total. Showing first comments.
+1 reply
slipknot836 1,839 Oct 09, 2013 07:44 AM

Glad to see this got through in the end, 6ive stars

+1 reply
CMepTb 40 Oct 10, 2013 12:09 PM

The intro section is:

--------------------------------------------------------------------------------------------------------------------------
--------------------------------------------------------------------------------------------------------------------------
--------------------------------------------------------------------------------------------------------------------------
----3---2---0------5-----5---5-----7---5---3------8-7-----7-5------3---2---0------5-----5---5-----7---5---3-----7-5-----5b
--------------------------------------------------------------------------------------------------------------------------
0-0---0---0----2-2---2-2---2---3-3---3---3----5-5-----3-3------0-0---0---0----2-2---2-2---2---3-3---3---3---5-5-----3-3---

+2 reply
Retallican 10 Oct 17, 2013 05:47 AM

Intro
Guitar 1
|-----------------------------------------------------------------|
|-----------------------------------------------------------------|
|-----------------------------------------------------------------|
|-----3---2---0-------5-----5---5-----7---5---3-------8-------5---|
|---0---0---0---0---4-----4---------3---3---3---3---8---8---4---4-|
|-0---------------2-----2-----2---3---------------8-------2-------|

|-------------------------------------------------------------------------|
|-------------------------------------------------------------------------|
|-------------------------------------------------------------------------|
|-----3---2---0-------5-----5---5-----7---5---3-------12-------5-BU-(7)~~-|
|---0---0---0---0---4-----4---------3---3---3---3---8----8---7------------|
|-0---------------2-----2-----2---3---------------8--------7--------------|

guest
You may want to rate the tab now too:
select rating