Oops, an error
Loading. Please wait.

Vengeance tab

version 2
version 2

Whole song

Interactive

by Trivium
4,418 views 3 this week
5 commentsread comments
1 2 3 4 5
x 3
add to favorites
×
Save as Personal and add changes to this tab that will be seen only by you. Learn more ›
×
You can save this tab as Personal to edit and correct it or add notes. All changes will be seen only by you. Learn more »
launch autoscroll
font size
0
reset
how to read this tab
guitar tuner
edit
Autoscroll
slow
fast
+/-
esc
set tempo
stop
Author
Difficulty
Trivium
Vengeance

.-palm mute
/-slide up
\-slide down
m-mute after striking note
h-hammer-on
pf-pick fast, sounds like pull-off
*-pinch harmonic

Intro 0:00-0:19
Guitar 1 and 2
|---------------------------------------------------------------|
|---------------------------------------------------------------|
|---------------------------------------------------------------|
|-------------2-4-5-----------2-4-4-----------2-4-2-------------| 
|-2-----------0-2-3-----------0-2-2-----------0-2-0-----5-------|
|-0-0-0-0-0-0-------0-0-0-0-0-------0-0-0-0-0-------0-0-3-0-000-| x4
    . . . . .       . . . . .       . . . . .       . .   . ...

0:19-0:29
Lead
|---------------10----------------------------------------------------|
|---12-12-10/12----13-12-13-12---------12-12-12\10/12-10----10--------|
|-9-------------7--------------12---9---------------------12----10--9-|
|----9--9--7/9-----10-9--10-9-----------9--9--9\7/9----7-----7--------|
|-7----------------------------10---7---------------------10----8---7-|
|---------------------------------------------------------------------|

Guitar 1
|----------------|
|----------------|
|----------------|
|----------------| 
|-2--3--7--5---7-|
|-0--1--5--3-3/5-| x2
             .

Verse
0:29-0:38
Guitar 1 and 2
|-----------------------------------------------------------------|
|-----------------------------------------------------------------|
|-----------------------------------------------------------------|
|-2h4-------------5\4-------------2h4-------------------------5h7-| 
|-0h2-------------3\2-------------0h2-------------5h7-----5h7-----|
|-----0-000-0-000-----0-000-0-000-----0-000-0-000-----5h7---------|
      . ... . ...     . ... . ...     . ... . ...

|---------------------------------------------------------------|
|---------------------------------------------------------------|
|---------------------------------------------------------------|
|-2h4-------------5\4-------------2h4-----0h2---------------5h7-| 
|-0h2-------------3\2-------------0h2-----0-----5h7-----5h7-----|
|-----0-000-0-000-----0-000-0-000-----0-0-----0-----5h7---------|
      . ... . ...     . ... . ...     . .     .

0:38-0:39      
Guitar 1
|-5-3-------------|
|-----6-5-3-5-3-0-|
|-----------------|
|-----------------|
|-----------------|
|-----------------|

Guitar 2
|-----------------|
|-6-5-----3-5-----|
|-----7-5-----5-4-|
|-----------------|
|-----------------|
|-----------------|

0:39-0:58
Guitar 1 and 2
|-----------------------------------------------------------------|
|-----------------------------------------------------------------|
|-----------------------------------------------------------------|
|-2h4-------------5\4-------------2h4-------------------------5h7-| 
|-0h2-------------3\2-------------0h2-------------5h7-----5h7-----|
|-----0-000-0-000-----0-000-0-000-----0-000-0-000-----5h7---------|
      . ... . ...     . ... . ...     . ... . ...

|-------------------------------------------------------------|
|-------------------------------------------------------------|
|-------------------------------------------------------------|
|-2h4-------------5\4-------------2h4-----0h2-----------------| 
|-0h2-------------3\2-------------0h2-----0---------3-3-3-3-2-|
|-----0-000-0-000-----0-000-0-000-----0-0-----0-0-0-1-1-1-1-0-|
      . ... . ...     . ... . ...     . .     . . . m m m m

|---------------------------------------------------------------|
|---------------------------------------------------------------|
|---------------------------------------------------------------|
|-------------2-4-5-----------2-4-4-----------2-4-2-------------| 
|-2-----------0-2-3-----------0-2-2-----------0-2-0-----5-------|
|-0-0-0-0-0-0-------0-0-0-0-0-------0-0-0-0-0-------0-0-3-0-000-| x2
    . . . . .       . . . . .       . . . . .       . .   . ...

 
Chorus 0:58-1:17
Lead
|---------------10----------------------------------------------------|
|---12-12-10/12----13-12-13-12---------12-12-12\10/12-10----10--------|
|-9-------------7--------------12---9---------------------12----10--9-|
|----9--9--7/9-----10-9--10-9-----------9--9--9\7/9----7-----7--------|
|-7----------------------------10---7---------------------10----8---7-|
|---------------------------------------------------------------------|x2

Guitar 1
|----------------|
|----------------|
|----------------|
|----------------| 
|-2--3--7--5---7-|
|-0--1--5--3-3/5-|x4
             .

Verse 1:17-1:45

Chorus 1:45-2:06

Break 2:06-2:34
Guitar 1 and 2
|--------------------------------------------------------------|
|--------------------------------------------------------------|
|--------------------------------------------------------------|
|--------------------------------------------------------------|
|-2----------------------------------------------------------3-|
|-0--0-0-0-0-000-000-0-0-0-0-000-000-0-0-0-0-000-000-0-000-0-1-|
     . . . . ... ... . . . . ... ... . . . . ... ... . ... . .

|------------------------------------------------|
|------------------------------------------------|
|------------------------------------------------|
|------------------------------------------------|
|-2----------------------------------------------| 
|-0--0-0-0-0-000-000-0-0-0-0-000-000-0-0-0-0-000-| 
     . . . . ... ... . . . . ... ... . . . . ...

|--------------------------------|
|--------------------------------|
|--------------------------------|
|--------------------------------|
|-------3---3-2--3-----3-2---2---|
|-2-3-5---0----2---3-1-----3---3-|
  . . .   .    .   . .     .
  
|--------------------------------------------------------------|
|--------------------------------------------------------------|
|--------------------------------------------------------------|
|--------------------------------------------------------------|
|-2----------------------------------------------------------3-|
|-0--0-0-0-0-000-000-0-0-0-0-000-000-0-0-0-0-000-000-0-000-0-1-|
     . . . . ... ... . . . . ... ... . . . . ... ... . ... . .

|------------------------------------------------|
|------------------------------------------------|
|------------------------------------------------|
|------------------------------------------------|
|-2----------------------------------------------| 
|-0--0-0-0-0-000-000-0-0-0-0-000-000-0-0-0-0-000-| 
     . . . . ... ... . . . . ... ... . . . . ...

|--------------------------------|   |--------------------------------|
|--------------------------------|   |--------------------------------|
|--------------------------------|   |--------------------------------| 
|--------------------------------|   |--------------------------------|
|-------3---3-2--3-----3-2---2---|   |-------3---3-2--3-----3-2---2---|
|-2-3-5---0----2---3-1-----3---3-|x3 |-2-3-5---0----2---3-1-----3---5-|
  . . .   .    .   . .     .           . . .   .    .   . .     .

   
Backing To Solo 2:34-3:00
|-------------------------------------------------|
|-------------------------------------------------|
|-------------------------------------------------|
|-2-2---------3-3---------5-5---------2-2---------| 
|-0-0-0-000-0-0-0-0-000-0-3-3-3-333-3-3-3-3-333-3-|
|-------------------------------------------------| 
      . ... .     . ... .     . ... .     . ... .   

|-------------------------------------------------|    |---|
|-------------------------------------------------|    |---|
|-------------------------------------------------|    |---|
|-2-2---------3-3---------------------5-5---------|    |---|
|-0-0-0-000-0-0-0-0-000-0-3-3---------3-3---------|    |-3-| guitar 2
|-------------------------1-1-1-111-1-1-1-1-111-1-| x3 |-1-| guitar 1
      . ... .     . ... .     . ... .     . ... .        *

Chorus 3:00-3:18

End Verse 3:18-3:28
Guitar 1 and 2
|-----------------------------------------------------------------|
|-----------------------------------------------------------------|
|-----------------------------------------------------------------|
|-2h4-------------5\4-------------2h4-------------------------5h7-| 
|-0h2-------------3\2-------------0h2-------------5h7-----5h7-----|
|-----0-000-0-000-----0-000-0-000-----0-000-0-000-----5h7---------|
      . ... . ...     . ... . ...     . ... . ...

|---------------------------------------------------------------|
|---------------------------------------------------------------|
|---------------------------------------------------------------|
|-2h4-------------5\4-------------2h4-----0h2---------------5h7-| 
|-0h2-------------3\2-------------0h2-----0-----5h7-----5h7-----|
|-----0-000-0-000-----0-000-0-000-----0-0-----0-----5h7---------|
      . ... . ...     . ... . ...     . .     .

3:28-3:29
Guitar 1
|-5-3--------------------------------|
|-----6-5-3-5-3-0--------------------|
|-----------------4-2-0--------------|
|-----------------------3-2-0--------|
|-----------------------------3-2pf0-|
|------------------------------------|

Guitar 2
|---------------------------------|
|-6-5-----3-5---------------------|
|-----7-5-----5-4-----------------|
|-----------------5-3-3-----------|
|-----------------------5-3-2-----|
|-----------------------------5-3-|

3:30
Guitar 1 and 2
|---|
|---|
|---|
|---|
|-2-|
|-0-|

            
            
Suggest correction
Creating personal tab
Creating personal tab
You can edit any tab online and save it as your Personal.

You can edit, replace or remove any tab part or add personal notes – all changes will be seen only by you.

Personal tabs can be accessed anytime from any device, even offline.
Learn more »
Give kudos to tab author, rate the tab!
1 2 3 4 5
comments
print report bad tab
5 comments total. Showing first comments.
0 reply
solopractice 172 Feb 05, 2009 03:11 PM

Awesome tab dood but the part right before the solo doesnt seem to fit...hmmm maybe its just me :)
Good stuff~

0 reply
Slasher27 41 Dec 16, 2010 08:17 AM

the part of the break just before the solo is supposed to go:

A|------3--3-2---2-----3-2---2---|
E|4-3-4--4-----3---3-1-----3---3-|
. . . . . . . . .

0 reply
Slasher27 41 Dec 16, 2010 08:20 AM

that didnt come out rigt... well, just palm mute everything on the E string in that part. but thats how its supposed to be played,

guest
You may want to rate the tab now too:
select rating
Wanna post a correction for this tab? Suggest correction