Oops, an error
Loading. Please wait.

Washing Away Me In The Tides tab

version 2
version 2

Whole song

Interactive

by Trivium
3,539 views 3 this week
4 commentsread comments
1 2 3 4 5
x 5
add to favorites
×
Save as Personal and add changes to this tab that will be seen only by you. Learn more ›
×
You can save this tab as Personal to edit and correct it or add notes. All changes will be seen only by you. Learn more »
launch autoscroll
font size
0
reset
how to read this tab
guitar tuner
edit
Autoscroll
slow
fast
+/-
esc
set tempo
stop
Author
Difficulty
Washing away me in the tides
Trivium
Ascendancy

Tabbed by Scott Bennett

Verse
Guitar I

e|----------------------------------------------------------------------------------|
b|----------------------------------------------------------------------------------|
g|--------------------------------------------------------------5----7-5-4----------|
d|----------------------------7----------2h3-------3-2b(3)r-3-3---3---------5-3-2---|
a|---0------------------------5----------------1-1----------------------------------|
d|---0--0--0-0-0--0--0--0-0-0---0--0-0-0-----0--------------------------------------|

Guitar II

e|----------------------------------------------------------------------------------|
b|----------------------------------------------------------------------------------|
g|--------------------------------------------------------------9----10-9-7---------|
d|----------------------------7----------5h7-------7-5b(7)r-7-7---7---------10-9-7--|
a|---0------------------------5----------------5-5----------------------------------|
d|---0--0--0-0-0--0--0--0-0-0---0--0-0-0-----0--------------------------------------|

Guitar I

e|----------------------------------------------------------------------------------|
b|----------------------------------------------------------------------------------|
g|----------------------------------------------------------------------------------|
d|----------------------------7----------2h3-------3-2b(3)r-0-0---------------------|
a|---0------------------------5----------------1-1--------------0-3-3---------------|
d|---0--0--0-0-0--0--0--0-0-0---0--0-0-0-----0--------------------------------------|

Guitar II

e|----------------------------------------------------------------------------------|
b|----------------------------------------------------------------------------------|
g|----------------------------------------------------------------------------------|
d|----------------------------7----------5h7-------7-5b(7)r-------------------------|
a|---0------------------------5----------------5-5----------8-8-0-7-7---------------|
d|---0--0--0-0-0--0--0--0-0-0---0--0-0-0-----0--------------------------------------|

Pre chorus

Guitar I

e|-----------------------------------------------------------------------------------------|
b|--------------------------------------10-8-----------------------------------------------|
g|---------------------------------10p9------10----------9----------10-------9-------9h10--|
d|---12----------10----------12s14--------------7--7-7-7---7--7-7-7----7-7-7---7-7-7-------|
a|------8--8-8-8----8--8-8-8---------------------------------------------------------------|
d|-----------------------------------------------------------------------------------------|

Guitar II

e|-----------------------------------------------------------------------------------------|
b|-----------------------------------------------------------------------------------------|
g|--------------------------------------7-5------------------------------------------------|
d|---3-----------2-----------3s5---7p5-------7----------5----------7--------5-------5h7----|
a|------1--1-1-1----1--1-1-1-------------------5--5-5-5---5--5-5-5----5-5-5---5-5-5--------|
d|-----------------------------------------------------------------------------------------|


Chorus 

Guitar I

e|-------------------~-----------------------------------------------------------------------------|
b|-------------------------------------------------------------------------------------------------|
g|-------------------3~-----------------------5----------------------------------------------------|
d|---0~--------------3~-----------------------5---------------------5-------5---7-------7----0~----|
a|---0~--------------1~-----------------------3---------------------5-------5---7-------7----0~----|
d|---0~-------------------------------------------------------------5---0---5---7---0---7----0~----|

Guitar II


e|--------------8~----------------5---------------------------------5-------8------12----8---------|
b|----------------------------8------8---6---------------6---5----------6--------------------10~---|
g|-----------9------------5-----------------------5---7---------5----------------------------------|
d|-------7------------3-----------------------5----------------------------------------------------|
a|---5---------------------------------------------------------------------------------------------|
d|-------------------------------------------------------------------------------------------------|

Verse
Pre chorus
Chorus

Break (Solo rythym)

e|-----------------------------------------------------------------------------------------------------------------|
b|-----------------------------------------------------------------------------------------------------------------|
g|-----------------------------------------------------------------------------------------------------------------|
d|-------------------------------------------------------------------------------------------------5---3---2---3---|
a|------------3-----------5~------------3-----------7~------------3-----------8~-----------3---------0---0---0-----|
d|---0---3h5-----5~----0-------0---3h5-----5~----0-------0---3h5-----5~----0------0---3h5-----5~-------------------|

End

I would've done the solos but I couldn't be bothered.

            
            
Suggest correction
Creating personal tab
Creating personal tab
You can edit any tab online and save it as your Personal.

You can edit, replace or remove any tab part or add personal notes – all changes will be seen only by you.

Personal tabs can be accessed anytime from any device, even offline.
Learn more »
comments
print report bad tab
4 comments total. Showing first comments.
0 reply
Freaking Out 792 Apr 01, 2006 04:40 AM

Pretty good tab mate. All we need now is a solo and its complete. Keep it up chap!

0 reply
NoSoupForYou711 20 Apr 09, 2006 02:12 PM

a whole bunch of stuff still feels really off in this tab. I am working on tabbing it out myself, and this just really through me for a loop. It's an okay tab though.

0 reply
skotyb 215 Apr 09, 2006 02:18 PM

pfft, do it then.

guest
You may want to rate the tab now too:
select rating
Wanna post a correction for this tab? Suggest correction