Oops, an error
Loading. Please wait.

Watch The World Burn tab

version 1
version 1

Whole song

Interactive

by Trivium
11,900 views 12 this week
no commentswrite comment
1 2 3 4 5
x 8
add to favorites
×
Save as Personal and add changes to this tab that will be seen only by you. Learn more ›
×
You can save this tab as Personal to edit and correct it or add notes. All changes will be seen only by you. Learn more »
launch autoscroll
font size
0
reset
how to read this tab
guitar tuner
backing track
0:00
0:00
edit
Autoscroll
slow
fast
+/-
esc
set tempo
stop
Author
Figured out by ear ... might be a few mistakes. RATE/ COMMENT

Drop C# tuning


INTRO

D#|------------------------------------------------------------------|
A#|------------------------------------------------------------------|
F#|------------------------------------------------------------------|
C#|-------------------------------------------------8888--85555-5555-|
G#|-------------------------------------------------8888--85555-5555-|
C#|--15-12p0-15-12p0-15-12p0-15-12p0--15-12-10-12/--8888--85555-5555-|


                                                             10's
D#|----------------------------------------------------------------------|
A#|----------------------------------------------------------------------|
F#|----------------------------------------------------------------------|
C#|-------------------------------------------------8888--810101010-9999-|
G#|-----------------------------------10------------8888--810101010-7777-|
C#|--15-12p0-15-12p0-15-12p0-15-12p0-----12-10-12/--8888--810101010------| 
                                                    
                                                                          x2


VERSE

         Let ring
D#|-------------------------------|
A#|--3~---------------------------|
F#|--2~---------------------------|
C#|--0~-----------------3~--------|
G#|--0~-----------------3~--------|
C#|--0~-----------------3~--------| x2

D#|------------------------------------------------------------------------|
A#|------------------------------------------------------------------------|
F#|------------------------------------------------------------------------|
C#|--0----------------0------------------3----------------3----------------|
G#|--0-0-0-0-0-0000---0-0-0-0000-0000----3-3-3-3-3-3333---3-3-3-3333-3333--|
C#|--0-0-0-0-0-0000---0-0-0-0000-0000----3-3-3-3-3-3333---3-3-3-3333-3333--|
  PM   . . . . ....     . . .... ....      . . . . ....     . . .... ....

D#|------------------------------------------------------------------------|
A#|------------------------------------------------------------------------|
F#|------------------------------------------------------------------------|
C#|--0----------------0------------------3----------------3----------------|
G#|--0-0-0-0-0-0000---0-0-0-0000-0000----3-3-3-3-3-3333---3-3-3-3333-3333--|
C#|--0-0-0-0-0-0000---0-0-0-0000-0000----3-3-3-3-3-3333---3-3-3-3333-3333--|
  PM   . . . . ....     . . .... ....      . . . . ....     . . .... ....

D#|-----------------------------------------------------------------------|
A#|-----------------------------------------------------------------------|
F#|-----------------------------------------------------------------------|
C#|--0----------------0------------------3----------------3-----7777-777--|
G#|--0-0-0-0-0-0000---0-0-0-0000-0000----3-3-3-3-3-3333---3-3-3-7777-777--|
C#|--0-0-0-0-0-0000---0-0-0-0000-0000----3-3-3-3-3-3333---3-3-3-7777-777--|
  PM   . . . . ....     . . .... ....      . . . . ....     . . 


PRECHORUS

D#|----------------------------------------------------------------------|
A#|----------------------------------------------------------------------|
F#|----------------------------------------------------------------------|
C#|--8---12-10----------5--8-7-------------------------------------------|
G#|--8---------12---5-----------8---0------------------------------------|
C#|--8--8--8--8-----5--5--5--5------0-14h15-0-10h12-0-0-14h15-0-10h12p0--|
  PM    .  .  .        .  .  .              .       .         .           x3

D#|--------------------------------------------------------------|
A#|--------------------------------------------------------------|
F#|--------------------------------------------------------------|
C#|--8---12-10------5---5--8-7------3---5--4---3----77777-/------|
G#|--8---------12---5-----------8---3----------3----77777-/------|
C#|--8--8--8--8-----5--5--5--5------3--3--3--3------77777-/------|
  PM    .  .  .        .  .  .         .  .  .



CHORUS - same as INTRO

D#|------------------------------------------------------------------|
A#|------------------------------------------------------------------|
F#|------------------------------------------------------------------|
C#|-------------------------------------------------8888--85555-5555-|
G#|-------------------------------------------------8888--85555-5555-|
C#|--15-12p0-15-12p0-15-12p0-15-12p0--15-12-10-12/--8888--85555-5555-|


                                                             10's
D#|----------------------------------------------------------------------|
A#|----------------------------------------------------------------------|
F#|----------------------------------------------------------------------|
C#|-------------------------------------------------8888--810101010-9999-|
G#|-----------------------------------10------------8888--810101010-7777-|
C#|--15-12p0-15-12p0-15-12p0-15-12p0-----12-10-12/--8888--810101010------| 
                                                    
                                                                          x2

Repeat VERSE, PRECHORUS and CHORUS



BREAKDOWN

D#|--------------------------------------------------------|
A#|--------------------------------------------------------|
F#|--------------------------------------------------------|
C#|--------------------------------------------------------|
G#|-5---5---5---5---5---5---5---5--------------------------|
C#|---8---7---8---7---8---7---8---7---8p5-0-7p3-0-5h7------| x4


D#|---------------------------------------| (listen for strumming here)
A#|---------------------------------------|
F#|--10-----12-----14-----17--------------|
C#|--x--x8--x--x4--x--x4--x--x32---10~----|
G#|--8------10-----12-----15-------10~----|
C#|--------------------------------10~----| x2


SOLO - (I improv the shredding something like this) .. With WAH!

D#|-------------------------------------------------------------|
A#|-------------------------------------------------------------|
F#|----------------------/10~-10p9h10-9h10p9h10p9---------------|
C#|-----------------------------------------------12-10---------|
G#|-/8~-8p7h8-8h10p8p7h8----------------------------------------|
C#|-------------------------------------------------------------|

D#|--12p12p10-13p12p10----------------------------------------------|
A#|--------------------13p11p10-13p11p10--10h11p10------------------|
F#|-------------------------------------------------12p10p9---------|
C#|----------------------------------------------------------12~----|
G#|-----------------------------------------------------------------|
C#|-----------------------------------------------------------------|

D#|--10-----10-----/13 15-13--12-----------------------|
A#|--13b15--13b15-------------15b17-r15p13-15*---------|
F#|----------------------------------------------------|
C#|----------------------------------------------------|
G#|----------------------------------------------------|
C#|----------------------------------------------------|


D#|--16p15p13-16p15p13----------------------------------------------|
A#|--------------------16p14p13-16p14p13--13h14p13------------------|
F#|-------------------------------------------------15p13p12--------|
C#|-----------------------------------------------------------15~---|
G#|-----------------------------------------------------------------|
C#|-----------------------------------------------------------------|

D#|--13------13-------------------------------|
A#|------17------15---13--13b15~--------------|
F#|-------------------------------------------|
C#|-------------------------------------------|
G#|-------------------------------------------|
C#|-------------------------------------------|


Repeat PRECHORUS and CHORUS


OUTRO

D#|-----------------------------------------------------------------|
A#|-----------------------------------------------------------------|
F#|-----------------------------------------------------------------|
C#|-------------------------------x3--88888888--10101010--14141414--|
G#|-------0--------0-(10)--------------88888888--10101010--14141414--|
C#|-0-0-0-0--0-0-0-0--15-12p10h12-----88888888--10101010--14141414--| x2
 PM . . .    . . .

D#|----------------------|
A#|---------3~~~~~-------|
F#|---------2~~~~~-------|
C#|---------0~~~~~-------| Ring out to fade
G#|--0-0-0--0~~~~~-------|
C#|--0-0-0--0~~~~~-------|
 PM  . . .



Thankyou.

            
            
Suggest correction
Creating personal tab
Creating personal tab
You can edit any tab online and save it as your Personal.

You can edit, replace or remove any tab part or add personal notes – all changes will be seen only by you.

Personal tabs can be accessed anytime from any device, even offline.
Learn more »
comments
print report bad tab
guest
You may want to rate the tab now too:
select rating
Wanna post a correction for this tab? Suggest correction