Oops, an error
Loading. Please wait.

Ill Wear Your Ring tab

265 views 1 this week
no commentswrite comment
1 2 3 4 5
1 last vote to show rating
add to favorites
×
Save as Personal and add changes to this tab that will be seen only by you. Learn more ›
×
You can save this tab as Personal to edit and correct it or add notes. All changes will be seen only by you. Learn more »
launch autoscroll
font size
0
reset
how to read this tab
guitar tuner
edit
Autoscroll
slow
fast
+/-
esc
set tempo
stop
About this tab version
Album Version. For acoustic version, use capo 1. Was this info helpful? Yes No
[Intro]
      d  u  d       d  u  d     (same strumming pattern throughout)
e|----0--0--0-------0--0--0------|
B|----1--1--1-------1--1--1------|
G|----0--0--0-------0--0--0------| x2
D|----2--2--2--0h2--2--2--2------| 
A|-3--3--3--3-------3--3--3------|
E|-------------------------------|

[Verse 1]

e|----0--0--0-------0--0--0------1--1--1-----0--0--0-------|
B|----1--1--1-------1--1--1------1--1--1-----1--1--1-------|
G|----0--0--0-------0--0--0------2--2--2-----0--0--0-------|
D|----2--2--2--0h2--2--2--2------3--3--3-----2--2--2-------| 
A|-3--3--3--3-------3--3--3------3--3--3--3--3--3--3-------|
E|----------------------------1--1--1--1-------------------|
   The weight on my finger    The faint slip of silver

e|----0--0--0-------0--0--0------3--3--3-------3--3--3-----|
B|----1--1--1-------1--1--1------0--0--0-------0--0--0-----|
G|----0--0--0-------0--0--0------0--0--0-------0--0--0-----|
D|----2--2--2--0h2--2--2--2------0--0--0-------0--0--0-----| 
A|-3--3--3--3-------3--3--3------2--2--2--0h2--2--2--2-----|
E|----------------------------3--3--3--3-------3--3--3-----|
  The feeling you’re never far gone

e|----0--0--0-------0--0--0------1--1--1-----0--0--0-------|
B|----1--1--1-------1--1--1------1--1--1-----1--1--1-------|
G|----0--0--0-------0--0--0------2--2--2-----0--0--0-------|
D|----2--2--2--0h2--2--2--2------3--3--3-----2--2--2-------| 
A|-3--3--3--3-------3--3--3------3--3--3--3--3--3--3-------|
E|----------------------------1--1--1--1-------------------|
  Did it feel authentic?      Did you feel you meant it

e|----0--0--0-----3--3--3------0--0--0-------0--0--0-------|
B|----1--1--1-----0--0--0------1--1--1-------1--1--1-------|
G|----0--0--0-----0--0--0------0--0--0-------0--0--0-------|
D|----2--2--2-----0--0--0------2--2--2--0h2--2--2--2-------| 
A|-3--3--3--3-----2--2--2---3--3--3--3-------3--3--3-------|
E|-------------3--3--3--3----------------------------------|
  when you said our loving was wrong?

e|----0--0--0-------0--0--0------|
B|----1--1--1-------1--1--1------|
G|----0--0--0-------0--0--0------|
D|----2--2--2--0h2--2--2--2------| 
A|-3--3--3--3-------3--3--3------|
E|-------------------------------|

[Verse 2]
e|----0--0--0-------0--0--0------1--1--1-----0--0--0-------|
B|----1--1--1-------1--1--1------1--1--1-----1--1--1-------|
G|----0--0--0-------0--0--0------2--2--2-----0--0--0-------|
D|----2--2--2--0h2--2--2--2------3--3--3-----2--2--2-------| 
A|-3--3--3--3-------3--3--3------3--3--3--3--3--3--3-------|
E|----------------------------1--1--1--1-------------------|
   I wrote you a letter       I said I was better

e|----0--0--0-------0--0--0------3--3--3-------3--3--3-----|
B|----1--1--1-------1--1--1------0--0--0-------0--0--0-----|
G|----0--0--0-------0--0--0------0--0--0-------0--0--0-----|
D|----2--2--2--0h2--2--2--2------0--0--0-------0--0--0-----| 
A|-3--3--3--3-------3--3--3------2--2--2--0h2--2--2--2-----|
E|----------------------------3--3--3--3-------3--3--3-----|
  I said I would never know why

e|----0--0--0-------0--0--0------1--1--1-----0--0--0-------|
B|----1--1--1-------1--1--1------1--1--1-----1--1--1-------|
G|----0--0--0-------0--0--0------2--2--2-----0--0--0-------|
D|----2--2--2--0h2--2--2--2------3--3--3-----2--2--2-------| 
A|-3--3--3--3-------3--3--3------3--3--3--3--3--3--3-------|
E|----------------------------1--1--1--1-------------------|
  You left like a bandit      It’s not like we planned it

e|----0--0--0-----3--3--3------0--0--0---------------------|
B|----1--1--1-----0--0--0------1--1--1---------------------|
G|----0--0--0-----0--0--0------0--0--0---------------------|
D|----2--2--2-----0--0--0------2--2--2---------------------| 
A|-3--3--3--3-----2--2--2---3--3--3--3----3--2--0----------|
E|-------------3--3--3--3----------------------------------|
  But I’ll leave the light on for a while

[Chorus]
e|----1--1--1-----1--1--1------1--1--1-----1--1--1---------|
B|----0--0--0-----0--0--0------1--1--1-----1--1--1---------|
G|----0--0--0-----0--0--0------2--2--2-----2--2--2---------|
D|----0--0--0-----0--0--0------3--3--3-----3--3--3---------| 
A|----2--2--2-----2--2--2------3--3--3-----3--3--3---------|
E|-3--3--3--3--3--3--3--3---1--1--1--1--1--1--1--1---------|
  And I’ll leave the linen the way they’ve been slept in

e|----0--0--0-----0--0--0------1--1--1-----1--1--1---------|
B|----1--1--1-----1--1--1------0--0--0-----0--0--0---------|
G|----2--2--2-----2--2--2------0--0--0-----0--0--0---------|
D|-2--2--2--2--2--2--2--2------0--0--0-----0--0--0---------|
A|----0--0--0-----0--0--0------2--2--2-----2--2--2---------|
E|--------------------------3--3--3--3--3--3--3--3---------|
  The sheets on the bed in a pile       And I’ll wear your

e|----0--0--0-----1--1--1------0--0--0-----1--1--1---------|
B|----1--1--1-----1--1--1------1--1--1-----0--0--0---------|
G|----0--0--0-----2--2--2------0--0--0-----0--0--0---------|
D|----2--2--2-----3--3--3------2--2--2-----0--0--0---------| 
A|-3--3--3--3-----3--3--3---3--3--3--3-----2--2--2---------|
E|-------------1--1--1--1---------------3--3--3--3---------|
  ring on the right hand for a while    And I’ll wear your

e|----0--0--0-----1--1--1------0--0--0-------0--0--0-------|
B|----1--1--1-----0--0--0------1--1--1-------1--1--1-------|
G|----0--0--0-----0--0--0------0--0--0-------0--0--0-------|
D|----2--2--2-----0--0--0------2--2--2--0h2--2--2--2-------| 
A|-3--3--3--3-----2--2--2---3--3--3--3-------3--3--3-------|
E|-------------3--3--3--3----------------------------------|
  ring on the right hand for a while

e|----0--0--0-------0--0--0------|
B|----1--1--1-------1--1--1------|
G|----0--0--0-------0--0--0------| x2 (this line only)
D|----2--2--2--0h2--2--2--2------| 
A|-3--3--3--3-------3--3--3------|
E|-------------------------------|

[Verse 3]
e|----0--0--0-------0--0--0------1--1--1-----0--0--0-------|
B|----1--1--1-------1--1--1------1--1--1-----1--1--1-------|
G|----0--0--0-------0--0--0------2--2--2-----0--0--0-------|
D|----2--2--2--0h2--2--2--2------3--3--3-----2--2--2-------| 
A|-3--3--3--3-------3--3--3------3--3--3--3--3--3--3-------|
E|----------------------------1--1--1--1-------------------|
  Did I breath too deep in    when I held you sleeping

e|----0--0--0-------0--0--0------3--3--3-------3--3--3-----|
B|----1--1--1-------1--1--1------0--0--0-------0--0--0-----|
G|----0--0--0-------0--0--0------0--0--0-------0--0--0-----|
D|----2--2--2--0h2--2--2--2------0--0--0-------0--0--0-----| 
A|-3--3--3--3-------3--3--3------2--2--2--0h2--2--2--2-----|
E|----------------------------3--3--3--3-------3--3--3-----|
  Did you dream you’re leaving for long?

e|----0--0--0-------0--0--0------1--1--1-----0--0--0-------|
B|----1--1--1-------1--1--1------1--1--1-----1--1--1-------|
G|----0--0--0-------0--0--0------2--2--2-----0--0--0-------|
D|----2--2--2--0h2--2--2--2------3--3--3-----2--2--2-------| 
A|-3--3--3--3-------3--3--3------3--3--3--3--3--3--3-------|
E|----------------------------1--1--1--1-------------------|
  I’ll hang up tomorrow       And beg, steal and borrow

e|----0--0--0-----3--3--3------0--0--0---------------------|
B|----1--1--1-----0--0--0------1--1--1---------------------|
G|----0--0--0-----0--0--0------0--0--0---------------------|
D|----2--2--2-----0--0--0------2--2--2---------------------| 
A|-3--3--3--3-----2--2--2---3--3--3--3----3--2--0----------|
E|-------------3--3--3--3----------------------------------|
  I’m breathing, you’re leaving and you’re gone

[Chorus]
e|----1--1--1-----1--1--1------1--1--1-----1--1--1---------|
B|----0--0--0-----0--0--0------1--1--1-----1--1--1---------|
G|----0--0--0-----0--0--0------2--2--2-----2--2--2---------|
D|----0--0--0-----0--0--0------3--3--3-----3--3--3---------| 
A|----2--2--2-----2--2--2------3--3--3-----3--3--3---------|
E|-3--3--3--3--3--3--3--3---1--1--1--1--1--1--1--1---------|
  I put on my denim         and put on a gingham

e|----0--0--0-----0--0--0------1--1--1-----1--1--1---------|
B|----1--1--1-----1--1--1------0--0--0-----0--0--0---------|
G|----2--2--2-----2--2--2------0--0--0-----0--0--0---------|
D|-2--2--2--2--2--2--2--2------0--0--0-----0--0--0---------|
A|----0--0--0-----0--0--0------2--2--2-----2--2--2---------|
E|--------------------------3--3--3--3--3--3--3--3---------|
  In classic American style             And I’ll wear your

e|----0--0--0-----1--1--1------0--0--0-----1--1--1---------|
B|----1--1--1-----1--1--1------1--1--1-----0--0--0---------|
G|----0--0--0-----2--2--2------0--0--0-----0--0--0---------|
D|----2--2--2-----3--3--3------2--2--2-----0--0--0---------| 
A|-3--3--3--3-----3--3--3---3--3--3--3-----2--2--2---------|
E|-------------1--1--1--1---------------3--3--3--3---------|
  ring on the right hand for a while    And I’ll wear your

e|----0--0--0-----1--1--1------0--0--0-------0--0--0-------|
B|----1--1--1-----0--0--0------1--1--1-------1--1--1-------|
G|----0--0--0-----0--0--0------0--0--0-------0--0--0-------|
D|----2--2--2-----0--0--0------2--2--2--0h2--2--2--2-------| 
A|-3--3--3--3-----2--2--2---3--3--3--3-------3--3--3-------|
E|-------------3--3--3--3----------------------------------|
  ring on the right hand for a while

e|----0--0--0-------0--0--0------|
B|----1--1--1-------1--1--1------|
G|----0--0--0-------0--0--0------|
D|----2--2--2--0h2--2--2--2------| 
A|-3--3--3--3-------3--3--3------|
E|-------------------------------|


[Interlude]
e|----0--0--0-------0--0--0------1--1--1-----0--0--0-------|
B|----1--1--1-------1--1--1------1--1--1-----1--1--1-------|
G|----0--0--0-------0--0--0------2--2--2-----0--0--0-------|
D|----2--2--2--0h2--2--2--2------3--3--3-----2--2--2-------| 
A|-3--3--3--3-------3--3--3------3--3--3--3--3--3--3-------|
E|----------------------------1--1--1--1-------------------|

e|----0--0--0-------0--0--0------3--3--3-------3--3--3-----|
B|----1--1--1-------1--1--1------0--0--0-------0--0--0-----|
G|----0--0--0-------0--0--0------0--0--0-------0--0--0-----|
D|----2--2--2--0h2--2--2--2------0--0--0-------0--0--0-----| 
A|-3--3--3--3-------3--3--3------2--2--2--0h2--2--2--2-----|
E|----------------------------3--3--3--3-------3--3--3-----|

e|----0--0--0-------0--0--0------1--1--1-----0--0--0-------|
B|----1--1--1-------1--1--1------1--1--1-----1--1--1-------|
G|----0--0--0-------0--0--0------2--2--2-----0--0--0-------|
D|----2--2--2--0h2--2--2--2------3--3--3-----2--2--2-------| 
A|-3--3--3--3-------3--3--3------3--3--3--3--3--3--3-------|
E|----------------------------1--1--1--1-------------------|

e|----0--0--0-----3--3--3------0--0--0---------------------|
B|----1--1--1-----0--0--0------1--1--1---------------------|
G|----0--0--0-----0--0--0------0--0--0---------------------|
D|----2--2--2-----0--0--0------2--2--2---------------------| 
A|-3--3--3--3-----2--2--2---3--3--3--3----3--2--0----------|
E|-------------3--3--3--3----------------------------------|


[Verse 4]
e|----0--0--0-------0--0--0------1--1--1-----0--0--0-------|
B|----1--1--1-------1--1--1------1--1--1-----1--1--1-------|
G|----0--0--0-------0--0--0------2--2--2-----0--0--0-------|
D|----2--2--2--0h2--2--2--2------3--3--3-----2--2--2-------| 
A|-3--3--3--3-------3--3--3------3--3--3--3--3--3--3-------|
E|----------------------------1--1--1--1-------------------|
   I’m dressed for the morning  And just for a moment

e|----0--0--0-------0--0--0------3--3--3-------3--3--3-----|
B|----1--1--1-------1--1--1------0--0--0-------0--0--0-----|
G|----0--0--0-------0--0--0------0--0--0-------0--0--0-----|
D|----2--2--2--0h2--2--2--2------0--0--0-------0--0--0-----| 
A|-3--3--3--3-------3--3--3------2--2--2--0h2--2--2--2-----|
E|----------------------------3--3--3--3-------3--3--3-----|
  I’ve almost forgotten you’re gone

e|----0--0--0-------0--0--0------1--1--1-----0--0--0-------|
B|----1--1--1-------1--1--1------1--1--1-----1--1--1-------|
G|----0--0--0-------0--0--0------2--2--2-----0--0--0-------|
D|----2--2--2--0h2--2--2--2------3--3--3-----2--2--2-------| 
A|-3--3--3--3-------3--3--3------3--3--3--3--3--3--3-------|
E|----------------------------1--1--1--1-------------------|
  Then I remember             I have ’til September

e|----0--0--0-----3--3--3------0--0--0---------------------|
B|----1--1--1-----0--0--0------1--1--1---------------------|
G|----0--0--0-----0--0--0------0--0--0---------------------|
D|----2--2--2-----0--0--0------2--2--2---------------------| 
A|-3--3--3--3-----2--2--2---3--3--3--3----3--2--0----------|
E|-------------3--3--3--3----------------------------------|
  Summer, the daylight, so long


[Chorus]
e|----1--1--1-----1--1--1------1--1--1-----1--1--1---------|
B|----0--0--0-----0--0--0------1--1--1-----1--1--1---------|
G|----0--0--0-----0--0--0------2--2--2-----2--2--2---------|
D|----0--0--0-----0--0--0------3--3--3-----3--3--3---------| 
A|----2--2--2-----2--2--2------3--3--3-----3--3--3---------|
E|-3--3--3--3--3--3--3--3---1--1--1--1--1--1--1--1---------|
  I’ll put on a kettle      of whistling metal

e|----0--0--0-----0--0--0------1--1--1-----1--1--1---------|
B|----1--1--1-----1--1--1------0--0--0-----0--0--0---------|
G|----2--2--2-----2--2--2------0--0--0-----0--0--0---------|
D|-2--2--2--2--2--2--2--2------0--0--0-----0--0--0---------|
A|----0--0--0-----0--0--0------2--2--2-----2--2--2---------|
E|--------------------------3--3--3--3--3--3--3--3---------|
  And spill just a little on the tile   And I’ll wear your

e|----0--0--0-----1--1--1------0--0--0-----1--1--1---------|
B|----1--1--1-----1--1--1------1--1--1-----0--0--0---------|
G|----0--0--0-----2--2--2------0--0--0-----0--0--0---------|
D|----2--2--2-----3--3--3------2--2--2-----0--0--0---------| 
A|-3--3--3--3-----3--3--3---3--3--3--3-----2--2--2---------|
E|-------------1--1--1--1---------------3--3--3--3---------|
  ring on the right hand for a while    And I’ll wear your
                               d  u  d  d
e|----0--0--0-----1--1--1------0--0--0--0------------------|
B|----1--1--1-----0--0--0------1--1--1--1------------------|
G|----0--0--0-----0--0--0------0--0--0--0------------------|
D|----2--2--2-----0--0--0------2--2--2--2------------------| 
A|-3--3--3--3-----2--2--2---3--3--3--3--3------------------|
E|-------------3--3--3--3----------------------------------|
  ring on the right hand for a while


[Verse 1]
C
The weight on my finger
F                 C
The faint slip of silver
                             G                                
The feeling you're never far gone
C
Did it feel authentic?
F                C                          G          C        
Did you feel you meant it when you said our loving was wrong?

[Verse 2]
C                       F          C
I wrote you a letter, I said I was better
C                         G
I said I would never know why
C
You left like a bandit
F                C
It's not like we planned it
                   G              C
But I'll leave the light on for a while

[Chorus ]
G7                           F
And I'll leave the linen the way they've been slept in
Am                         G7
The sheets on the bed in a pile
                   C           F                C
And I'll wear your ring on the right hand for a while
G7                 C           G7               C
And I'll wear your ring on the right hand for a while

[Verse 3]
C                              F          C
Did I breathe too deep in when I held you sleeping?
                                 G
Did you dream you're leaving for long?
C
I'll hang up tomorrow
    F              C
And beg, steal and borrow
                      G                  C
I'm breathing, you're leaving and you're gone


[Chorus]
G7                    F
I put on my denim and put on a gingham
   Am               G7
In classic American style
                   C           F                C
And I'll wear your ring on the right hand for a while
G7                 C           G7               C
And I'll wear your ring on the right hand for a while

[Interlude]
C F C G
C F C G C

[Verse 4]
C           
I'm dressed for the morning
    F          C
And just for a moment
                             G
I've almost forgotten you're gone
C
Then I remember
F           C
I have 'til September
            G             C
Summer, the daylight's so long

[Chorus]
G7                      F
I'll put on a kettle of whistling metal
    Am                         G7
And spill just a little on the tile
                   C           F                C
And I'll wear your ring on the right hand for a while
G7                 C           G7               C
And I'll wear your ring on the right hand for a while



***********************************
| h   Hammer-on
***********************************

            
            
Suggest correction
Creating personal tab
Creating personal tab
You can edit any tab online and save it as your Personal.

You can edit, replace or remove any tab part or add personal notes – all changes will be seen only by you.

Personal tabs can be accessed anytime from any device, even offline.
Learn more »
Give kudos to tab author, rate the tab!
1 2 3 4 5
comments
print report bad tab
guest
You may want to rate the tab now too:
select rating
Wanna post a correction for this tab? Suggest correction