Oops, an error
Loading. Please wait.

Give It To Me Good Tab

version 1
version 1

Whole song

Interactive

1,684 views 1 this week
1 commentread comment
1 2 3 4 5
please rate
add to favorites
launch autoscroll
font size
0
reset
how to read this tab
guitar tuner
Autoscroll
slow
fast
+/-
esc
set tempo
stop
Help us to improve Ultimate-Guitar.com Take our survey!
×
Author
Difficulty
Tuning
intermediate
D# G# C# F# A# D#
Give It To Me Good
Trixter


Tuning down 1/2 step (Eb Ab Db Gb Bb Eb)

 G       C9      D       G/B
|3      |3      |2      |3
|3      |3      |3      |3      
|0      |0      |2      |0
|0      |2      |0      |0
|2      |3      |x      |2
|3      |x      |x      |x


 Intro(0:00)
  G                  G                
Gtr I (Clean)
|-3-3---3-3-3-3-3-||---3---3-3-3-3-3-||  |
|-3-3---3-3-3-3-3-||---3---3-3-3-3-3-||  | 
|-0-0---0-0-0-0-0-||---0---0-0-0-0-0-||X5|
|-0-0---0-0-0-0-0-||---0---0-0-0-0-0-||  |
|-----------------||-----------------||  |
|-----------------||-3---------------||  |


Intro Lead (0:08)
Gtr 2 (Clean)
|-8-7-5--5-5-5/7-x-x-7-x-x-5-x-x-3-8-8-7-|
|-8-8-8--8-8-8/8-x-x-8-x-x-5-x-x-3-8-8-8-|
|-0-0-0--0-0-0-0-x-x-0-x-x-0-x-x-0-0-0-0-|
|----------------------------------------|
|----------------------------------------|
|----------------------------------------|


Verse 1 (0:13)
Gtr 1 (Clean)
   G
||---3---3-3-3-3-3-||  |
||---3---3-3-3-3-3-||  | (0:21)
||---0---0-0-0-0-0-||X4| C9                                    G
||---0---0-0-0-0-0-||  | “That’s Alright” “'Cause I'm just a man”
||-----------------||  | 
||-3---------------||  |

G
You say you're from the city
G
Where things move so fast
G
Got your fancy cars and your diamond rings
G
You don't need a love to last


C9
And that's alright
           G
I'm just a man baby

D                 C9
So take me home tonight
         B/G            C9
Like you know that you should
   D                     C9
When you're ready to be bad
   B/G     rest           G
Just give it- give it to me good

Lead (0:54)
Gtr 2 (Clean)
|-8-7-5--5-5-5/7-x-x-7-x-x-5-x-x-3-8-8-7-|
|-8-8-8--8-8-8/8-x-x-8-x-x-5-x-x-3-8-8-8-|
|-0-0-0--0-0-0-0-x-x-0-x-x-0-x-x-0-0-0-0-|
|----------------------------------------|
|----------------------------------------|
|----------------------------------------|


Riff 1 (0:58)
Gtr 1 (Distorted)
|---3-------------|---3-------------|---3-------------|---3-3-----------|  
|---3-------------|---3-------------|---3-------------|---3-3-----------|
|---0-------------|---0-----------0-|---0-------------|---0-0-----------|
|-----------------|-----------------|-----------------|-----------------|
|---------------3-|-----------------|---------------3-|-----------------|
|/3---3-0-0-3-5---|/3---3-0-0-3-5---|/3---3-0-0-3-5---|/3---------------|
        [p.m.--]          [p.m.--]          [p.m.--]   


Verse 2 (1:06)
Gtr 1 (Distorted)                                          Gtr 2 (Dist.) (1:08)
 G                                                         Lead over “Rocker”
|-----------------------------------------------||  |   |-14fb-14fb-|  
|-----------------------------------------------||  |   |-----------|
|--------0-----------0---------0--0-------------||  |   |-----------|
|-0--0-0----0--0-0-0----0--0-0----0-------------||X2|   |-----------|
|-2--2-2----2--2-2-2----2--2-2----2-----------3-||  |   |-----------|
|-3--3-3----3--3-3-3----3--3-3----3-3-0-0-3-5---||  |   |-----------|
    [p.m.]     [p.m.]     [p.m.]    [p.m.----]












Gtr 2 Lead   (1:15)
|-------------8-8-7------|--------------------------------|  
|-------------8-8-8------|--------------------------------|  
|-------------0-0-0------|--14fb--12---------14hb-14rb-12-|
|------------------------|------------14fb----------------| 
|------------------------|--------------------------------| 
|------------------------|--------------------------------| 

Gtr 1 Rhythm (1:15)
|-3-----------3----------|-3------------------------------| 
|-3-----------3----------|-3------------------------------|
|-0-----------0----------|-0------------------------------|
|-2-----------2----------|-0------------------------------|
|-3-----------3----------|-2------------------------------|  
|------------------------|-3------------------------------|  

Verse 3 (1:23)(1:27)
Gtr 1 (Distorted)
 G                                            Ending:1 (1:26)  End:2 (1:30)
|--------------------------------|  |---------------||----------|  
|--------------------------------|  |---------------||----------|
|--------0-----------0---------0-|X2|-0-------------||----------| 
|-0--0-0----0--0-0-0----0--0-0---|  |-0-------------||-0—-0—0-0-|
|-2--2-2----2--2-2-2----2--2-2---|  |-2-----------3-||-2—-2-2-2-|
|-3--3-3----3--3-3-3----3--3-3---|  |-3-3-0-0-3-5---||-3--3-3-3-| 
    [p.m.]     [p.m.]     [p.m.]      [p.m.------]       [p.m.]



Gtr 2 Lead   (1:31)
|-------------8-8-7------|----------------17fb-17f--17-15-|  
|-------------8-8-8------|--15----------------------------|  
|-------------0-0-0------|--14fb-14-12v-------------------|
|------------------------|--------------------------------| 
|------------------------|--------------------------------| 
|------------------------|--------------------------------| 

Gtr 1 Rhythm (1:31)
|-3-----------3----------|-3------------------------------| 
|-3-----------3----------|-3------------------------------|
|-0-----------0----------|-0------------------------------|
|-2-----------2----------|-0------------------------------|
|-3-----------3----------|-2------------------------------|  
|------------------------|-3------------------------------|  

Gtr 1 (Dist.) 
(1:40)
D                 C9
So take me home tonight
         B/G            C9
Like you know that you should
   D                     C9
When you're ready to be bad
   B/G     rest           G
Just give it- give it to me good
Riff 1 (1:48)
Gtr 1 (Distorted)
|---3-------------|---3-------------|---3-------------|---3-------------||   
|---3-------------|---3-------------|---3-------------|---3-------------||  |
|---0-------------|---0-----------0-|---0-------------|---0-----------5-||X2|
|-----------------|-----------------|-----------------|-----------------||  |
|-----------------|-----------------|-----------------|-----------------||  |
|/3---3-0-0-3-5-1-|/3---3-0-0-3-5---|/3---3-0-0-3-5-1-|/3---3-0-0-3-5---||  |
        [p.m.--]          [p.m.--]          [p.m.--]             [p.m.--] 


Solo Buildup (2:04)
Gtr 1 (Dist.)
|-3-----------3-----------| 
|-3-----------3-----------|
|-0-----------0-----------|
|-0-----------0-----------|
|-3-----------3-----------|
|-3-----------3-----------|


Solo (2:13)
(Clean)
|-1/3-3--1/3-3--1/3-3—-3-3—x-x-6-x-x-5p3-------------------|
|-1/3-3--1/3-3-—1/3-3—-3-3-x-x-3-x-x-5p3-------------------|
|----------------------------------------5p3-5p3---------0-|
|------------------------------------------------5p3-0h2---|
|----------------------------------------------------------|
|----------------------------------------------------------|

                                                   Distorted (2:21)
|------------------------------------||-----------------------|
|----------------------------5b-3b---||-15---15---------------|
|-----------5-3--------------5b-3b---||-14fb-14fb-14p12—14p12-|
|-5p0-3p0-x-----5—-5p0-3p0-x-------5-||-----------------------|
|------------------------------------||-----------------------|
|------------------------------------||-----------------------|   


|-------------------------------------------------------------|
|-15fb-15p12-15b17r15-------15-------15-------15-------15b18--|
|---------------------14h16----14h16----14h16----14h16--------|
|-------------------------------------------------------------|
|-------------------------------------------------------------|
|-------------------------------------------------------------|  


|-17p15p14---------------14/15-15-17-17fb\-|
|----------17p15p14------14/15-15-15-------|
|-------------------16fb-------------------|
|------------------------------------------|
|------------------------------------------|
|------------------------------------------| 



Rhythm Under solo
|-----------------------------------------------||  |   
|-----------------------------------------------||  | 
|--------0-----------0---------0--0-------------||  |
|-0--0-0----0--0-0-0----0--0-0----0-------------||X4| 
|-2--2-2----2--2-2-2----2--2-2----2-----------3-||  | 
|-3--3-3----3--3-3-3----3--3-3----3-3-0-0-3-5---||  |
 [p.m.-----------------------------------------]


Post Solo (2:29)
Gtr 1 (Dist.)
|-3-----------3-----------| 
|-3-----------3-----------|
|-0-----------0-----------|
|-0-----------0-----------|
|-3-----------3-----------|
|-3-----------3-----------|

Gtr 2 
|-------------------------| 
|----------------[12]a.h.-|
|-------------------------|
|-------------------------|
|-------------------------|
|-------------------------|


Verse 4 (2:37)
Gtr 1 (Dist.)
G                                             Ending:1 (2:41)  End:2 (2:45)
|--------------------------------|  |---------------||----------|  
|--------------------------------|  |---------------||----------|
|--------0-----------0---------0-|X2|-0-------------||----------| 
|-0--0-0----0--0-0-0----0--0-0---|  |-0-------------||-0—-0—0-0-|
|-2--2-2----2--2-2-2----2--2-2---|  |-2-----------3-||-2—-2-2-2-|
|-3--3-3----3--3-3-3----3--3-3---|  |-3-3-0-0-3-5---||-3--3-3-3-| 
    [p.m.]     [p.m.]     [p.m.]      [p.m.------]       [p.m.]


Gtr 2 Lead   (2:46)
|-------------8-8-7------|-----------------------------------|  
|-------------8-8-8------|-----------------------------------|  
|-------------0-0-0------|---------------3p0-5p0-7p0-5p0-3p0-|
|------------------------|-----------------------------------| 
|------------------------|-----------------------------------| 
|------------------------|-----------------------------------| 

Gtr 1 Rhythm (2:46)
|-3-----------3----------|-3-------------3-------------------| 
|-3-----------3----------|-3-------------3-------------------|
|-0-----------0----------|-0-------------0-------------------|
|-2-----------2----------|-0-------------0-------------------|
|-3-----------3----------|-2-------------2-------------------|  
|------------------------|-3-------------3-------------------|  


Riff 1 (2:54)
Gtr 1 (Distorted)
|---3-------------|---3-------------|---3-------------|---3-------------||   
|---3-------------|---3-------------|---3-------------|---3-------------||  |
|---0-----------0-|---0-------------|---0-----------0-|---0-------------||X2|
|-----------------|-----------------|-----------------|-----------------||  |
|-----------------|---------------3-|-----------------|---------------3-||  |
|/3---3-0-0-3-5---|/3---3-0-0-3-5---|/3---3-0-0-3-5---|/3---3-0-0-3-5---||  |
        [p.m.--]          [p.m.--]          [p.m.--]             [p.m.--] 

 
Outro Riff (3:11)
Gtr 1 (Dist.)
 G
|-----------------------------------------|  | 
|--------3-------------3---------3--------|  |
|--------0-------------0---------0--------|X4|
|-----------------------------------------|  |
|-----------------------------------------|  |
|-3--3-3----3-3-3--3-3----3--3-3----3-3---|  |
    [p.m.]  [p.m.----]      [p.m.]  [p.m.]  


Suggest correction
What's this?
You can suggest a correction to this tab. Community and Mods will review your correction and vote to approve or reject it.
comments
We did not receive enough feedback on this tab! Please rate:
print report bad tab
1 2 3 4 5
1 comment total.
0 reply
zlef666 192 wrote on January 21 2013, 07:18 pm

Sorry, into lead is supposed to be:

Intro Lead (0:08)
Gtr 2 (Clean)
|-8-7-5--5-5-5/7-x-x-7-x-x-5-x-x-3-8-8-7-|
|-8-8-8--8-8-8/8-x-x-8-x-x-8-x-x-3-8-8-8-|
|-0-0-0--0-0-0-0-x-x-0-x-x-0-x-x-0-0-0-0-|
|----------------------------------------|
|----------------------------------------|
|----------------------------------------|

guest
You may want to rate the tab now too:
select rating
Please do not post tabs as comments. Select "correction" instead!