Oops, an error
Loading. Please wait.

Amazander Chords

by Tronic
37 views 1 this week
no commentswrite comment
1 2 3 4 5
3 more votes to show rating
add to favorites
launch autoscroll
font size
0
reset
transpose
0
reset
simplify chords
display chords
guitar tuner
×
Best way to learn
"Amazander"
Autoscroll
slow
fast
+/-
esc
set tempo
stop
Intro:  F#5 D5     x4
        F#5 G#5 D5 X4

|----------------------------------------|
|----------------------------------------|
|----------------------------------------|
|----------------------------------------|
|-----------4-4-3-3-5-5---------5-5-5----|
|-14s-0-2-2-------------4-4-5-5----------|
"desiza del 14 hasta llegar a 0"

|----------------------------------------|
|----------------------------------------|
|----------------------------------------|
|----------------------------------------|
|-----------4-4-3-3-5-5---------5-5-5----|
|-------2-2-------------4-4-5-5----------|

Wooooo
F#5                  D5
Siempre despierto roto en las mañanas
B5                  A5    G#5
con muchas ganas de metrallarte
F#5                  D5
y si no estas conmigo me siento walbert
B5                 C#5
y siempre caigo en la espacial

   D5  B5  F#5      A5
Te tengo y no voy a ceder
         D5    B5                C#5
Abre tus piernas que te voy a chupar
   D5    B5  F#5            A5         D5
Lo siento    pero asi es la vida en amazander
B5             C#5
la fiesta es infernal iaaa aaao

[D Intro]

Woooooo
F#5                     D5
Me encanta cuando llegas con tus amigas
B5                A5   G#5
Todas vestidas de policía
F#5                   D5
Siempre con sus jugetes de tubo negro
B5                  C#5
Y yo las grabo para la internet.


   D5  B5  F#5      A5
Te tengo y no voy a ceder
         D5    B5                C#5
Abre tus piernas que te voy a chupar
   D5    B5  F#5            A5         D5
Lo siento    pero asi es la vida en amazander
B5             C#5
la fiesta es infernal iaaa aaao

D-Intro

Así es la fiesta en amazander

amazander
amazander
amazander
amazander

|----------------------------------------|
|----------------------------------------|
|----------------------------------------|
|----------------------------------------|
|-----------4-4-3-3-5-5---------5-5-5----|
|-------2-2-------------4-4-5-5----------|
Suggest correction
Give kudos to tab author, rate the tab!
1 2 3 4 5
comments
print report bad tab
guest
You may want to rate the tab now too:
select rating
Wanna post a correction for this tab? Suggest correction