Oops, an error
Loading. Please wait.

Brasil bass

version 1
version 1

Whole song

by Tronic
1,821 views 6 this week
no commentswrite comment
1 2 3 4 5
3 more votes to show rating
add to favorites
×
Save as Personal and add changes to this tab that will be seen only by you. Learn more ›
×
You can save this tab as Personal to edit and correct it or add notes. All changes will be seen only by you. Learn more »
launch autoscroll
font size
0
reset
guitar tuner
edit
Autoscroll
slow
fast
+/-
esc
set tempo
stop
Difficulty
intermediate
La cancion es buenisima, me encanta este bajo. No creo que este 100% correcto pero es mi 
tab y este fue mucho mas complicado que el anterior.Espero que les ayude.

G|----------------------0--|-----------------------2------------------------|
D|----------3-------3------|-----------2-------2----------------------------|
A|3-3-4-5-5---5-5-5---1---1|-1-1-2-3-3---3-3-3---0---0----------------------|
E|-------------------------|------------------------------------------------|

G|----------------------0--|------------------------------------------------|
D|----------3-------3------|------------------------------------------------|
A|3-3-4-5-5---5-5-5---1---1|-1-1-2--3-3--3-3--3-3---------------------------|
E|--------------------------------------------------------------------------|

Entra cantante:

G|-------------------------|------------------------------------------------|
D|----3-------3------------|-----------2-------2----------------------------|
A|5-5---5-5-5---1----------|-1-1-2-3-3---3-3-3---0--------------------------|
E|-------------------------|------------------------------------------------|

G|-------------------------|------------------------------------------------|
D|----3-------3------------|------------------------------------------------|
A|5-5---5-5-5---1----------|-1-1-2--3-3--3-3--3-3---------------------------|
E|-------------------------|------------------------------------------------|


G|----------------------0--|-----------------------2------------------------|
D|----------3-------3------|-----------2-------2----------------------------|
A|------5-5---5-5-5---1---1|-1-1-2-3-3---3-3-3---0---0----------------------|
E|-------------------------|------------------------------------------------|

G|----------------------0--|------------------------------------------------|
D|----------3-------3------|------------------------------------------------|
A|3-3-4-5-5---5-5-5---1---1|-1-1-2--3-3--3-3--3-3---------------------------|
E|--------------------------------------------------------------------------|


Pre-coro:

G|--------------------------------------------------------------------------|
D|--0-3------2-5--------2------3---2----3---2-------------------------------|
A|1-----1--3-----3--0-3---0--5---3----1---3----3-3-3-3-3--------------------|
E|--------------------------------------------------------------------------|


Coro:

G|--------------------------------------------------------------------------|
D|--------------------------------------------------------------------------|
A|5-5-5-5-5-5-5-5-5/10-10-10-10-10-10-10-10---------------------------------|
E|------------------------------------------8-8-8-8-8-8-8-8-5-5-5-5-5-5-5-5-|

G|--------------------------------------------------------------------------|
D|--------------------------------------------------------------------------|
A|5-5-5-5-5-5-5-5-5/10-10-10-10-10-10-10-10---------------------------------|
E|------------------------------------------8-8-8-8-8-8-8-8-8-8-8-8-8-8-8-8-|
Coro dos veces.

Vuelve:

G|----------------------0--|-----------------------2------------------------|
D|----------3-------3------|-----------2-------2----------------------------|
A|3-3-4-5-5---5-5-5---1---1|-1-1-2-3-3---3-3-3---0---0----------------------|
E|-------------------------|------------------------------------------------|

G|----------------------0--|------------------------------------------------|
D|----------3-------3------|------------------------------------------------|
A|3-3-4-5-5---5-5-5---1---1|-1-1-2--3-3--3-3--3-3---------------------------|
E|--------------------------------------------------------------------------|

Repite pre-coro:

G|--------------------------------------------------------------------------|
D|--0-3------2-5--------2------3---2----3---2-------------------------------|
A|1-----1--3-----3--0-3---0--5---3----1---3----3-3-3-3-3--------------------|
E|--------------------------------------------------------------------------|


Coro:

G|--------------------------------------------------------------------------|
D|--------------------------------------------------------------------------|
A|5-5-5-5-5-5-5-5-5/10-10-10-10-10-10-10-10---------------------------------|
E|------------------------------------------8-8-8-8-8-8-8-8-5-5-5-5-5-5-5-5-|

G|--------------------------------------------------------------------------|
D|--------------------------------------------------------------------------|
A|5-5-5-5-5-5-5-5-5/10-10-10-10-10-10-10-10---------------------------------|
E|------------------------------------------8-8-8-8-8-8-8-8-8-8-8-8-8-8-8-8-|
Coro dos veces.

Variacion de pre-coro:

G|--------------------------------------------------------------------------|
D|--------------------------------------------------------------------------|
A|1-1-1-1-1-1-1-1-3-3-3-3-3-3-3-3-0-0-0-0-0-0-0-0-5-5-5-5-3-3-3-3-----------|
E|--------------------------------------------------------------------------|

Outro:


G|--------------------------------------------------------------------------|
D|--------------------------------------------------------------------------|
A|1-1-1-1-1-1-1-1-3-3-3-3-3-------------------------------------------------|
E|--------------------------------------------------------------------------|

G|----------------------0--|-----------------------2------------------------|
D|----------3-------3------|-----------2-------2----------------------------|
A|3-3-4-5-5---5-5-5---1---1|-1-1-2-3-3---3-3-3---0---0----------------------|
E|-------------------------|------------------------------------------------|

G|----------------------0--|------------------------------------------------|
D|----------3-------3------|------------------------------------------------|
A|3-3-4-5-5---5-5-5---1---1|-1-1-2--3-3--3-3--3-3---------------------------|
E|--------------------------------------------------------------------------|


G|----------------------0--|-----------------------2------------------------|
D|----------3-------3------|-----------2-------2----------------------------|
A|------5-5---5-5-5---1---1|-1-1-2-3-3---3-3-3---0---0----------------------|
E|-------------------------|------------------------------------------------|

G|----------------------0--|------------------------------------------------|
D|----------3-------3------|------------------------------------------------|
A|3-3-4-5-5---5-5-5---1---1|-1-1-2--3-3--3-3--3-3-4-4-5~--------------------|
E|--------------------------------------------------------------------------|

Y aqui esta.
Made by Johnny R.
email me at theresistance_2011@hotmail.com

            
            
Suggest correction
Creating personal tab
Creating personal tab
You can edit any tab online and save it as your Personal.

You can edit, replace or remove any tab part or add personal notes – all changes will be seen only by you.

Personal tabs can be accessed anytime from any device, even offline.
Learn more »
Give kudos to tab author, rate the tab!
1 2 3 4 5
comments
print report bad tab
guest
Wanna post a correction for this tab? Suggest correction