Oops, an error
Loading. Please wait.

El Arrecife bass

version 1
version 1

Whole song

Interactive

by Tronic
146 views 1 this week
no commentswrite comment
1 2 3 4 5
3 more votes to show rating
add to favorites
×
Save as Personal and add changes to this tab that will be seen only by you. Learn more ›
×
You can save this tab as Personal to edit and correct it or add notes. All changes will be seen only by you. Learn more »
launch autoscroll
font size
0
reset
guitar tuner
edit
Autoscroll
slow
fast
+/-
esc
set tempo
stop
Author
Difficulty
--------------------------------------------------------------------
                          TRONIC - "El Arrecife"
                  "Es la hora de limpiar la casa" ~ 2008
--------------------------------------------------------------------



===================================================

Afinación: E (Estandar)


/  - Glissando

x  - Silencio después de tocar

|
|.
|. - Abrir repetición
|

 |
.|
.| - Cerrar repetición
 |

~  - Dejar sonar

==================================================

=========
-Bass.
=========


.INTRODUCCIÓN: 00:04min..
G||----------------------------------------|
D||----------------------------------------|
A||-44x-----44x--------77x----00x----------|
E||----------------------------------------|

    00:09min.
G||----------------------------------------|
D||----------------------------------------|
A||-44x-----44x--------77x----00x----000~--|
E||----------------------------------------|

    00:15min.
G||---------------------------------------|
D||---------------------------------------|
A||-4~-444444~-4444444-7~-77777-0~-000000-|
E||---------------------------------------|

    00:20min.
G||------------------------------------------------||
D||------------------------------------------------||
A||-4~-444444~-4444444-7~-77777/12~-12121212121212-||
E||------------------------------------------------||



.ESTROFA: 00:25min.  "Yo me quiero sumar..."
G||----------------------------------------|
D||----------------------------------------|
A||-4~-444444-0~-000000-7~-77777-2~-222222-|
E||----------------------------------------|

    00:30min.  "Porque el mar..."
G||-----------------------------------------------|
D||-----------------------------------------------|
A||-4~-444444/12~-121212121212-7~-77777-2~-222222-|
E||-----------------------------------------------|

    00:36min.  "Tres botellas..."
G||--------------------------------------------|
D||--------------------------------------------|
A||-4~---4~--4~x--00~-000~-----------2~-222222-|
E||------------------------0~-000000-----------|

    00:41min.  "Porque así..."
G||-----------------------------------------------||
D||-----------------------------------------------||
A||-4~-444444/12~-121212121212-7~-77777-2~-222222-||
E||-----------------------------------------------||



.PRE-CORO: 00:46min.
G||--------------------------------------||
D||--------------------------------------||
A||--------------------22222222-22222222-||
E||-5~-555555-55555555-------------------||



.CORO: 00:52min.  "Dime, dime por qué..."
G||-----------------------------------------------|
D||.---------------------------------------------.|(x3)
A||.-7~-777777~-77/11111111------------4~-444444-.|
E||-------------------------5~-555555-------------|


    01:08min.
G||--------------------------------------------||
D||--------------------------------------------||
A||-7~-777777~-77/11111111-9~-999999-----------||
E||----------------------------------5~-555555-||



.PUENTE: 01:112in.
G||----------------------------------------|
D||----------------------------------------|
A||-44x-----44x--------77x----00x----000~--|
E||----------------------------------------|

    01:18min.
G||------------------------------------------------||
D||------------------------------------------------||
A||-4~-444444~-4444444-7~-77777/12~-12121212121212-||
E||------------------------------------------------||



.ESTROFA: 01:23min.  "La llegada..."
G||----------------------------------------|
D||----------------------------------------|
A||-4~-444444-0~-000000-7~-77777-2~-222222-|
E||----------------------------------------|

    01:28  "Fiesta, titas..."
G||-----------------------------------------------|
D||-----------------------------------------------|
A||-4~-444444/12~-121212121212-7~-77777-2~-222222-|
E||-----------------------------------------------|

    01:34min.  "Es la vida del mar..."
G||--------------------------------------------|
D||--------------------------------------------|
A||-4~---4~--4~x--00~-000~-----------2~-222222-|
E||------------------------0~-000000-----------|

    01:39min.  "Porque fiestiar..."
G||-----------------------------------------------||
D||-----------------------------------------------||
A||-4~-444444/12~-121212121212-7~-77777-2~-222222-||
E||-----------------------------------------------||



.PRE-CORO: 01:44min.
G||--------------------------------------||
D||--------------------------------------||
A||--------------------22222222-22222222-||
E||-5~-555555-55555555-------------------||



.CORO: 00:49min.  "Dime, dime por qué..."
G||-----------------------------------------------|
D||.---------------------------------------------.|(x3)
A||.-7~-777777~-77/11111111------------4~-444444-.|
E||-------------------------5~-555555-------------|

    02:05min.
G||--------------------------------------------||
D||--------------------------------------------||
A||-7~-777777~-77/11111111-9~-999999-----------||
E||----------------------------------5~-555555-||



.CORO2: 02:10min.  "Dime, dime por qué..."
G||--------------------------------------------------||
D||.------------------------------------------------.||(x2)
A||.-4~-444444~-4444444/7~-77777/12~-12121212121212-.||
E||--------------------------------------------------||


.OUTRO: 02:21min.  "Dime, dime por qué..."
G||---------------------------------------------|
D||---------------------------------------------|
A||-7~-777777~-77/11111111------------4~-444444-|
E||-------------------------5~-555555-----------|

    02:27min.
G||-------------------------------------------------||
D||-------------------------------------------------||
A||-7~-777777~-77/11111111-9~-999999-----------7~---||
E||----------------------------------5~-555555------||


---------------------------------------------------------------------------


.LETRA:

Yo me quiero sumar a tu revolucion
Porque el mar es inmenso para viajar.
Tres botellas de ron comienzan a bajar
Porque asi es la vida de pirata.

Dime, dime por que capitan
Siempre es tan dificil encontrar el arrecife.
Dime, dime porque capitan
Veinte nudos para regresar del arrecife.

La llegada al puerto siempre es lo mejor
Fiesta, titas, mucha birra para tomar.
Es la vida del mar, tambien del rock and roll
Porque fiestiar trae risa a la humanidad.

Dime, dime por que capitan
Siempre es tan dificil encontrar el arrecife.
Dime, dime porque capitan
Veinte nudos para regresar del arrecife.

Dime, dime por que capitan
Dime, dime por que capitan
Dime, dime por que capitan
Veinte nudos para regresar del arrecife.

---------------------------------------------------------------------------
---------------------------------------------------------------------------

Mi correo para cualquier consulta: jean_alexander_07@hotmail.com

Transcripción: Jean Alexander Delgadillo Olivares
Jueves 11 de Febrero de 2010/ 02:19hrs.

            
            
Suggest correction
Creating personal tab
Creating personal tab
You can edit any tab online and save it as your Personal.

You can edit, replace or remove any tab part or add personal notes – all changes will be seen only by you.

Personal tabs can be accessed anytime from any device, even offline.
Learn more »
Give kudos to tab author, rate the tab!
1 2 3 4 5
comments
print report bad tab
guest
You may want to rate the tab now too:
select rating
Wanna post a correction for this tab? Suggest correction