Oops, an error
Loading. Please wait.

Estamos Locos Tab

47 views 1 this week
no commentswrite comment
1 2 3 4 5
3 more votes to show rating
add to favorites
launch autoscroll
font size
0
reset
how to read this tab
guitar tuner
×
Best way to learn
"Estamos Locos"
Autoscroll
slow
fast
+/-
esc
set tempo
stop
Chic@s! acá dejo mi aporte, la tab del segundo adelanto del disco
"Vale Otro" de Tronic! :).


GUITARRA 1:

Intro1: (Hey tú estamos locos, completamente locos...)
E|--------------------------------------------------------------------|
B|------------------13-12~--------------------------------------------|
G|----------9-10-12---------------------------------------------------|
D|-------12---------------12-14-12---12-14-12---12-14-12-14-12-14-15~-| x2
A|----12--------------------------------------------------------------|
E|-10-----------------------------------------------------------------|

Intro2:
E|-----------------------------------------------------------------------|
B|-----------------------------------------------------------------------|
G|-7-----9----10----12----14----12----10----12----9~-7~--10-9-7-9-10-9~~x|
D|-x(x4)-x(x4)-x(x4)-x(x4)-x(x4)-x(x4)-x(x4)-x(x4)----------------------x|
A|-5-----7-----8----10----12----10-----8----10--------------------------x|
E|-----------------------------------------------------------------------|

E|----------------------------------------------|
B|----------------------------------------------|
G|9-9-10-10-12-12-14-14-10-10-12-12-15-15-15-15-|
D|x-x--x--x--x--x--x--x--x--x--x--x--x--x--x--x-|
A|7-7--8--8-10-10-12-12--8--8-10-10-13-13-13-13-|
E|----------------------------------------------|

Verso: (Una comedia de terror se está viviendo...)

(*Este país y el de al lado...):

   *
E|--------------------|
B|--------------6-----|
G|-5------3-----7-----|
D|-5(x16)-3(x8)-7(x8)-|
A|-3------1-----5-----|
E|--------------------|

E|------------------------------------------------------------|
B|----------------------------6------------------6------------|
G|--------3------5------3-----7-----5------3-----7-----5------|
D|-3------3(x16)-5(x16)-3(x8)-7(x8)-5(x16)-3(x8)-7(x8)-5(x16)-|
A|-3(x16)-1------3------1-----5-----3------1-----5-----3------|
E|-1----------------------------------------------------------|

Coro:
(No es novedad que cada vez que compras...)

E|--------------------------------|     |---------------|
B|--------------------------------|     |---------------|
G|--------------3------7-----5----|     |-3------5------|
D|3------7------3(x16)-7(x8)-5(x8)|(x2) |-3(x16)-5(x12)-|
A|3(x16)-7(x16)-1------5-----3----|     |-1------3------|
E|1------5------------------------|     |---------------|

Repite Intro2;
Repite Verso;
Repite Coro;

"Bridge":                                    "Break":
(Estamos locos y es fácil de entender...)  (No trates de entenderme!!..)

E|-5-----3-----1-----5-----3-----1-----|     |--000x-------|
B|-6-----5-----3-----5-----3-----1-----|     |--000x-------|
G|-7(x4)-5(x4)-3(x4)-6(x4)-4(x4)-2(x4)-|     |-----x2222---|(x4)
D|-7-----5-----3-----7-----5-----3-----|     |2~---x222233~|
A|-5-----3-----1-----7-----5-----3-----|     |2~---x000033~|
E|-------------------5-----3-----1-----|     |0~---x----11~|

Repite Coro;

Final:
(No señoor*...)

   *
E|-----------|
B|---------6-|
G|-6-6-6-6-7-|
D|-6-6-6-6-7-|
A|-4-4-4-4-5-|
E|-----------|


GUITARRA 2:

Intro2 (Rítmica):

E|------------------------------------------|
B|-6----------------------------------------|
G|-7(x16)--------3------5-------------------|
D|-7------3------3(x16)-5(x16)-7-----8------|
A|-5------3(x16)-1------3------7(x16-8(x16)-|
E|--------1--------------------5-----6------|

Verso:
(Una comedia de terror se está viviendo...)

E|-----------------------------------8(x16)-6(x8)-10(x8)-|
B|---10--10--10--10--11--11--11--11x-8------6-----10-----|
G|-10--10--10--10--10--10--10--10--x---------------------|
D|-------------------------------------------------------|
A|-------------------------------------------------------|
E|-------------------------------------------------------|

E|---------------------------------|
B|-10--10--10--10--11--11--11--11--|
G|-10--10--10--10--10--10--10--10--|
D|---------------------------------|
A|---------------------------------|
E|---------------------------------|

E|--8(x16)-6(x8)-10(x8)-8(x16)-6(x8)-10(x8)-8(x16)-|
B|x-8------6-----10-----8------6-----10-----8------|
G|x------------------------------------------------|
D|-------------------------------------------------|
A|-------------------------------------------------|
E|-------------------------------------------------|

Coro: (Rasgueo rápido)

E|------------------------------------|
B|-------10----8----11----10-----8----|
G|10------x(x8)x(x8)-x(x8)-x(x16)x(x8)|
D|-x(x16)-7----5-----8-----7-----5----|
A|-8----------------------------------|
E|------------------------------------|

E|-------------------------------------------------|
B|-------10----8----11----10-----8----11----10-----|
G|10------x(x8)x(x8)-x(x8)-x(x16)x(x8)-x(x8)-x(x12)|
D|-x(x16)-7----5-----8-----7-----5-----8-----7-----|
A|-8-----------------------------------------------|
E|-------------------------------------------------|

Repite Intro2;
Repite Verso;
Repite Coro;

"Bridge":
(Estamos locos y es fácil de entender...)

E|--------------------------------------------------------------------|
B|--------------------------------------------------------------------|
G|--------------------------------------------------------------------|
D|--------------------------------------------------------------------|
A|-5-5-7-8-5-5-7-8-10-------10-----7-8-------8---5-8-7--------4-4-7-7-|
E|--------------------8-8-8---8-10-----6-6-6---6--------5-5-5---------|

E|---------------------------------|
B|---------------------------------|
G|---------------------------------|
D|---------------------------------|
A|---------2-2-5-5---------0-0-3-3-|
E|-3-3-3-3---------1-1-1-1---------|


"Break":
(No trates de entenderme!!...)
E|---------------------|
B|---------------------|
G|-9-----14-----10-----|
D|-x(x10)--x(x6)--x(x2)|(x4)
A|-7-----12------8-----|
E|---------------------|

Repite Coro;

Final:
(No señoor*...)
E|----------------------|
B|-10----8------6~~5~~~~|
G|--x(x4)x(x4)--x-------|
D|--7----5------3~~-----|
A|----------------------|
E|----------------------|

El cover que hice lo puedes ver en la siguiente dirección:

o buscádolo en mi canal "BoriisRockX":
 ;)

En el la "Guitarra 1" se escucha principalmente en el
audífono/auricular izquierdo y la "Guitarra 2" se escucha
principalmente en el derecho.

Espero te sirva la tab :D saludos a todos!
Suggest correction
Give kudos to tab author, rate the tab!
1 2 3 4 5
comments
print report bad tab
guest
You may want to rate the tab now too:
select rating
Wanna post a correction for this tab? Suggest correction