Oops, an error
Loading. Please wait.

Goza La Vida Chords

by Tronic
28 views 1 this week
no commentswrite comment
1 2 3 4 5
3 more votes to show rating
add to favorites
launch autoscroll
font size
0
reset
transpose
0
reset
display chords
guitar tuner
×
Best way to learn
"Goza La Vida"
Autoscroll
slow
fast
+/-
esc
set tempo
stop
  D                        Em
 se lloran las penas en el bar
                       G
 sensacion de tranquilidad
         Fm           Em        Bm    A
 qe nunca duran mucho tiempo lo siento
  D                      Em
 rayos y centellas en el mar
                    G
 pirotecnia artificial
        Fm             Em       Bm    A
 qe hace olvidar mis cuentos de pueblo
  C                   Bm    Em
 se qe algun dia vamos a chocar
           D             C         D
 y apuesto qe saldras corriendo corriendo

  CORO

    G             D           C               Bm
   tonta   situacion si tu me ves porqe no miras
  G             D             C             Bm  A
  olvida el rencor sientete bien goza la vida hoy

  D                        Em
 vives estresado en la ciudad
                   G
 te gustaria encontrar
     Fm           Em       Bm   A
 toneladas de silencio y tiempo
 D                       Em
 rueda rueda rueda carrusel
                             G
 no te cuestiones si llegas a el
          Fm                Em       Bm   A
 solo disfruta y vive el momento sonriendo
 C                        Bm    Em
 se qe algun dia tu me encontraras
           D             C         D
 y siempre voy a estar contento contento

  CORO

     G           D             C             Bm
    tonta situacion si tu me ves porqe no miras
  G            D            C             Bm  A
 olvida el rencor sientete bien goza la vida hoy

 SOLO
|----------------------------------|
|-8------------------8-------------|
|----10--5-7-5-7--------10--5-7----|
|----------------------------------| [---- x2
|----------------------------------|
|----------------------------------|

|---------------------------------------|
|---------------------------------------|
|-12--10--12-13-12-10----14--12--14-15--|
|---------------------------------------|
|---------------------------------------|
|---------------------------------------|

|----------------------------------------------------15---15--15-16--|
|------------------15--15-15-16---16--16--18---18--18----------------|
|15--15-17----17--17-------------------------------------------------|
|--------------------------------------------------------------------|
|--------------------------------------------------------------------|
|--------------------------------------------------------------------|

  CORO

  G          D            C              Bm
 tonta situacion si tu me ves porqe no miras
 G             D             C             Bm  A
 olvida el rencor sientete bien goza la vida hoy
 C         Bm  A
 goza la vida hoy

  GRANDE TRONIC ! SU MUSICA LA LLEVA ! DESDE EL FRIO COYHAIQUE SE
   LES SIGUE :D
Suggest correction
Give kudos to tab author, rate the tab!
1 2 3 4 5
comments
print report bad tab
guest
You may want to rate the tab now too:
select rating
Wanna post a correction for this tab? Suggest correction