Oops, an error
Loading. Please wait.

Malos Amigos Bass Tab

version 1
version 1

Whole song

Interactive

1,280 views 6 this week
no commentswrite comment
1 2 3 4 5
please rate
add to favorites
launch autoscroll
font size
0
reset
guitar tuner
Autoscroll
slow
fast
+/-
esc
set tempo
stop
Help us to improve Ultimate-Guitar.com Take our survey!
×
Author
++++++++++++++++++++++++
| Tronic- Malos Amigos |
++++++++++++++++++++++++


"Quisiera ver amigos que por nada esten contigo..."

Tuning: EADG


Intro
1.
G|---------------------------------------|
D|---------------------------------------|
A|-555----------------555----------------|
E|----5x----222-3x-------5x----222-3x----|

Verse
"Siempre llaman por algo..."
2.
G|---------------------------------------|
D|---------------------------------------|
A|-555----------------555----------------|
E|----5x----222-3x-------5x----222-3x----|

"Te puedo contar..."
3.
G|--------------------------------|
D|-------------------------44-555-|
A|-555-7x--------------55-4-------|
E|-----------222-3x------5--------|

Pre-Chorus
"Quisiera ver amigos..."
4.
G|-------------------------------------|
D|-------------------22222222-5555-7x--|
A|-22222222----------------------------|
E|----------55555555-------------------|

Chorus
"Si te ganas un premio..."
5.
G|-------------------------------------|
D|-------------------44444444-55555555-|
A|-55555555----------------------------|--x2
E|----------55555555-------------------|

Outro
6.
G|---------------------------------------|
D|---------------------------------------|
A|-555----------------555----------------|
E|----5x----222-3x-------5x----222-3x----|

Verse
"Siempre van a la Iglesia..."
7.
G|---------------------------------------|
D|---------------------------------------|
A|-555----------------555----------------|
E|----5x----222-3x-------5x----222-3x----|

"Te puedo contar..."
8.
G|--------------------------------|
D|-------------------------44-555-|
A|-555-7x--------------55-4-------|
E|-----------222-3x------5--------|

Pre-Chorus
"Quisiera ver amigos..."
9.
G|-------------------------------------|
D|-------------------22222222-5555-7x--|
A|-22222222----------------------------|
E|----------55555555-------------------|

Chorus
"Si te ganas un premio..."
10.
G|-------------------------------------|
D|-------------------44444444-55555555-|
A|-55555555----------------------------|--x2
E|----------55555555-------------------|

"Malos amigos tienen buen merecido..."
11.
G|------------------------------|
D|---------------2222222-5555-7x|
A|-2222222----------------------|
E|--------5555555---------------|

Bridge
12.
G|------------------------------|
D|------------------------------|
A|-55--5-77--4-55--5-77--4------|--x2
E|---3-----5-----3-----5--------|

Pre-Chorus
"Quisiera ver amigos..."
13.
G|-------------------------------------|
D|-------------------------------------|
A|-22222222----------------------------|
E|----------55555555-00000000-3333-5x--|

Chorus
"Si te ganas un premio..."
14.
G|-------------------------------------|
D|-------------------44444444-55555555-|
A|-55555555----------------------------|--x2
E|----------55555555-------------------|

"Malos amigos tienen buen merecido..."
15.
G|------------------------------|
D|---------------2222222-5555-7x|
A|-2222222----------------------|
E|--------5555555---------------|

Outro
16.
G|---------------------------------------|
D|---------------------------------------|
A|-555----------------555----------------|
E|----5x----222-3x-------5x----222-3x----|


Lyrics:


Siempre llaman por algo
La amistad o el favor
Te puedo contar
Ellos solo piensan
En todo lo material

Quisiera ver amigos
Que por nada esten contigo

Si te ganas un premio
Si te mueres primero
Ellos siempre van a estar
Y si no tienes dinero 
Los que lleguen primero
Son los que son de verdad

Siempre van a la Iglesia
Hablan con tatita dios
Te puedo contar
Que si ven un pobre
Nunca su helado le dan

Malos amigos tienen buen merecido
El infierno es su final



+++++++++++++++++++++++++++++++++
| RaiLeff                       |
| Underground__Dora@Hotmail.Com |
+++++++++++++++++++++++++++++++++
Suggest correction
Give kudos to tab author, rate the tab!
1 2 3 4 5
comments
print report bad tab
guest
You may want to rate the tab now too:
select rating
Please do not post tabs as comments. Select "correction" instead!