Oops, an error
Loading. Please wait.

Newbie Bass Tab

37 views 1 this week
no commentswrite comment
1 2 3 4 5
3 more votes to show rating
add to favorites
launch autoscroll
font size
0
reset
guitar tuner
×
Best way to learn
"Newbie"
Autoscroll
slow
fast
+/-
esc
set tempo
stop
Intro

G----------------------------------
D----------------------------------
A----------------------------222---
E--3~-00-11-33--3~-00-11-33--------

Verso

G----------------------------------
D----------------------------------
A----------------------------222---
E--3~-00-11-33--3~-00-11-33--------

Esta parte 2 veces
G-----------------------------------------------
D-----------------------------------------------
A------------------------------------22222222---
E--33333333--0-000-1111-1?-33333333-------------

Pre-coro

G--------------------------------
D--------------------------------
A--333333--------222222----------
E---------333333--------333333---

G-------------------------------------------------
D-------------------------------------------------
A-------------------------------------------------
E--5555555555--3333333333?1111111111-3333333333---

Coro

G----------------------------------------------------
D----------------------------------------------------
A---------------5555555555-------------3333333333----
E--3-5555555555------------3333333333----------------

G---------------------------------------
D---------------------------------------
A---------------1111111111--------------
E--3-1111111111------------3333333333---


Se repite

Verso
Pre-Coro
Coro
 Y al final en la parte del solo es asi

G---------------------------------------
D---------------------------------------
A--5555555555-333333333-555555555-------
E----------------------------------3~---


weno esta kncion me gusta xq usan notas fantasmas = q en zigura roel
weno eso es too ablamos
kualquier cosa a mi correo      max_2994@...
Suggest correction
Give kudos to tab author, rate the tab!
1 2 3 4 5
comments
print report bad tab
guest
You may want to rate the tab now too:
select rating
Wanna post a correction for this tab? Suggest correction