Oops, an error
Loading. Please wait.

Newbie Tab

by Tronic
59 views 1 this week
no commentswrite comment
1 2 3 4 5
3 more votes to show rating
add to favorites
launch autoscroll
font size
0
reset
how to read this tab
guitar tuner
×
Best way to learn
"Newbie"
Autoscroll
slow
fast
+/-
esc
set tempo
stop
Tronic-Newbie

INTRO:
E|-------------------------------------------------------|
B|-------------------------------------------------------|
G|--------------------------------------------4-4-4-4----|
D|--5------22-33-55------5------22-33-55------4-4-4-4----|
A|--5------22-33-55------5------22-33-55------2-2-2-2----|
E|--3--3*--00-11-33--3*--3?-3*--00-11-33?-3*-------------|

*= armónico (repítanlo oyendo bien los tiempos)


VERSO:
E|------------------------------------------------|
B|------------------------------------------------|
G|-----------------------------------4-4-4-4------|
D|--5----22-33-55----5---22-33-55----4-4-4-4------|
A|--5----22-33-55----5---22-33-55----2-2-2-2------|
E|--3----00-11-33----3?--00-11-33?----------------|


E|------------------------------------------------|
B|------------------------------------------------|
G|-------------------------------------44444444---|
D|--55555555---2-222-3333-3--55555555--44444444---| x2
A|--55555555---2-222-3333-3--55555555--22222222---|
E|--33333333---0-000-1111-1?-33333333----?--------|


PRE CORO:
E|--------------------------------------|
B|--------------------------------------|
G|--555555----------444444--------------|
D|--555555--555555--444444--555555------|
A|--333333--555555--222222--555555------|
E|----------333333-----?----333333------|


E|-------------------------------------------------|
B|-------------------------------------------------|
G|-------------------------------------------------|
D|--7777777777--5555555555--3333333333--5555555555-|
A|--7777777777--5555555555--3333333333--5555555555-|
E|--5555555555--3333333333--1111111111--3333333333-|


CORO:
E|-------------------------------------------------------|
B|-------------------------------------------------------|
G|-----------------7777777777--------------5555555555----|
D|--5--7777777777--7777777777--5555555555--5555555555----|
A|--5--7777777777--5555555555--5555555555--3333333333----|
E|--3--5555555555--------------3333333333----------------|


E|-------------------------------------------|
B|-------------------------------------------|
G|-----------------3333333333----------------|
D|--5--3333333333--3333333333--5555555555----|
A|--5--3333333333--1111111111--5555555555?---|
E|--3--1111111111--------------3333333333----|
INTERMEDIO:
E|-------------------------------------------------------|
B|-------------------------------------------------------|
G|--------------------------------------------4-4-4-4----|
D|--5------22-33-55------5------22-33-55------4-4-4-4----|
A|--5------22-33-55------5------22-33-55------2-2-2-2----|
E|--3--3*--00-11-33--3*--3?-3*--00-11-33?-3*-------------|


VERSO II:
E|------------------------------------------------|
B|------------------------------------------------|
G|-------------------------------------44444444---|
D|--55555555---2-222-3333-3--55555555--44444444---| x2
A|--55555555---2-222-3333-3--55555555--22222222---|
E|--33333333---0-000-1111-1?-33333333----?--------|


PRE CORO:
E|--------------------------------------|
B|--------------------------------------|
G|--555555----------444444--------------|
D|--555555--555555--444444--555555------|
A|--333333--555555--222222--555555------|
E|----------333333-----?----333333------|


E|-------------------------------------------------|
B|-------------------------------------------------|
G|-------------------------------------------------|
D|--7777777777--5555555555--3333333333--5555555555-|
A|--7777777777--5555555555--3333333333--5555555555-|
E|--5555555555--3333333333--1111111111--3333333333-|


CORO:
E|-------------------------------------------------------|
B|-------------------------------------------------------|
G|-----------------7777777777--------------5555555555----|
D|--5--7777777777--7777777777--5555555555--5555555555----|
A|--5--7777777777--5555555555--5555555555--3333333333----|
E|--3--5555555555--------------3333333333----------------|


E|-------------------------------------------|
B|-------------------------------------------|
G|-----------------3333333333----------------|
D|--5--3333333333--3333333333--5555555555----|
A|--5--3333333333--1111111111--5555555555?---|
E|--3--1111111111--------------3333333333----|


SOLO:
E|---------------------------------------|
B|---------------------------------------|
G|-----14-14-14--------------------------|
D|--12----------14h15h14h15h14h15h14-----|
A|---------------------------------------|
E|---------------------------------------|


E|---------------------------------------|
B|---------------------------------------|
G|-----14-14-14--------------------------|
D|--12----------14h15h14h15h14h15h14-----|
A|---------------------------------------|
E|---------------------------------------|


E|---------------------------------------|
B|---------------------------------------|
G|-----14-14-14--------------------------|
D|--10----------14h15h14h15h14h15h14-----|
A|---------------------------------------|
E|---------------------------------------|


E|-----------------------------------------------|
B|-----------------------------------------------|
G|--14-14-14-14----------------------------------|
D|--------------14-14-14-14-15-15-15-15-14-14-14-|
A|-----------------------------------------------|
E|-----------------------------------------------|


E|---------------------------------------|
B|---------------------------------------|
G|-----14-14-14--------------------------|
D|--12----------14h15h14h15h14h15h14-----|
A|---------------------------------------|
E|---------------------------------------|


E|---------------------------------------|
B|---------------------------------------|
G|-----14-14-14--------------------------|
D|--12----------14h15h14h15h14h15h14-----|
A|---------------------------------------|
E|---------------------------------------|


E|---------------------------------------|
B|---------------------------------------|
G|-----14-14-14--------------------------|
D|--10----------14h15h14h15h14h15h14^----|
A|---------------------------------------|
E|---------------------------------------|


Ok kabros ai estuvo el tab,
lo sake a puro oido pero kn muxa dedikacion xD
asi k kualkier error es valido
i me lo pueden mandar a mi korreo
davide_1005@
Suggest correction
Give kudos to tab author, rate the tab!
1 2 3 4 5
comments
print report bad tab
guest
You may want to rate the tab now too:
select rating
Wanna post a correction for this tab? Suggest correction