Oops, an error
Loading. Please wait.

Peligro Tab

5 views 1 this week
no commentswrite comment
1 2 3 4 5
3 more votes to show rating
add to favorites
launch autoscroll
font size
0
reset
how to read this tab
guitar tuner
Autoscroll
slow
fast
+/-
esc
set tempo
stop
Help us to improve Ultimate-Guitar.com Take our survey!
×
 El cine es una industria, es dinero,
son cientos miles de millones invertidos en peliculas
y recaudados en taquilla.
 Ahí fuera esta la industria norteamericana dispuesta
a pisotearos y solo hay un modo de competir con ellos;
dar al publico lo que quiere ver.

Intro:      Natural Harmonics
                                                                     x2
E||---------------------------------|---------------------------------|
B||---------------------------------|---------------------------------|
G||---------------------------------|---------------------------------|
D||---------------------------------|---------------------------------|
A||-<>6-<>6-<>6-<>6-<>6-<>6-<>6-<>6-|-<>4-<>4-<>4-<>4-<>4-<>4-<>4-<>4-|
E||---------------------------------|---------------------------------|
                                                                     x2
E||---------------------------------|---------------------------------|
B||---------------------------------|---------------------------------|
G||---------------------------------|---------------------------------|
D||---------------------------------|---------------------------------|
A||---------------------------------|---------------------------------|
E||-<>4-<>4-<>4-<>4-<>4-<>4-<>4-<>4-|-<>5-<>5-<>5-<>5-<>5-<>5-<>5-<>5-|


Verso:
 Un sonido de suspenso
te acelera el corazón
En todo sientes el peligro
animales radioactivos
enrabiados de color
amarillo florecente                                  x4
|---------------------------|-------------------------|
|---------------------------|-------------------------|
|*--3-----------------------|-------------------------|
|*--------------------------|-------------------------|
|---4-----4--4--4--4--4--5--|-----5--5--5--5--5--5--5-|
|---2-----2--2--2--2--2--3--|-----3--3--3--3--3--3--3-|
          M..........................................

|--------------------------|--------------------------|
|--------------------------|--------------------------|
|--------------------------|--------------------------|
|--------------------------|--------------------------|
|--7-----7--7--7--7--7--9--|-----9--9--9--9--9--9--9--|
|--5-----5--5--5--5--5--7--|-----7--7--7--7--7--7--7--|
   ..................................................


Coro:
 Destrucción,Ficción
del cine a la televisión
Matar,Sangrar
La gente goza con el mal                                          x8
|-------------------------------|----------------------------------|
|-------------------------------|----------------------------------|
|-------------------------------|----------------------------------|
|-------------------------------|----------------------------------|
|---11----11--11----9S--11--11--|--9--9S--11--11--12--12--12--12---|
|----9-----9---9----7S---9---9--|--7--7S---9---9--10--10--10--10---|


Puente:
  No!
 Uahhhh!                                                                 x2
|--------------------------------------|----------------------------------|
|--------------------------------------|----------------------------------|
|*-------------------------------------|----------------------------------|
|*--6----------------------------------|----------------------------------|
|---4----<>x--<>4--<>x--<>4--<>x--<>4--|--x----x--<>4--<>x--<>4--<>x--<>4-|
|--------------------------------------|----------------------------------|


Refran:
 Esto es industria muestra
amor o sexo te irá bien
|----------------------------------|----------------------------------|
|----------------------------------|----------------------------------|
|----------------------------------|----------------------------------|
|--6----x--6----x--6----x--6----x--|----------------------------------|
|--4--<>x--4--<>x--4--<>x--4--<>x--|--5----x--5----x--5----x--5----x--|
|----------------------------------|--3--<>3--3--<>3--3--<>3--3--<>3--|


|----------------------------------|----------------------------------|
|----------------------------------|----------------------------------|
|----------------------------------|----------------------------------|
|----------------------------------|----------------------------------|
|--4----x--4----x--4----x--4----x--|--5----x--5----x--5---------------|
|--2--<>2--2--<>2--2--<>2--2--<>2--|--3--<>3--3--<>3--3---------------|

El hombre esta perdido
en peligro de extinción
y ya no puede salvarse
seres de otro planeta traen furia y maldad
quieren eliminar al hombre

Destruccion,Ficcion
del cine a la television
Matar,Sangrar
La gente goza con el mal

No!
Uahh!

Esto es industria muestra
amor o sexo te irá bien
mata gente, choca autos
eso paga bien

Interludio:
 Hey hey hey
Hey hey hey                                          x4
|---------------------------|-------------------------|
|---------------------------|-------------------------|
|*--------------------------|-------------------------|
|*--------------------------|-------------------------|
|---4--4--4--4--4--4--4--5--|--5--5--5--5--5--5--5--5-|
|---2--2--2--2--2--2--2--3--|--3--3--3--3--3--3--3--3-|


|---------------------------|-------------------------|
|---------------------------|-------------------------|
|---------------------------|-------------------------|
|---------------------------|-------------------------|
|---7--7--7--7--7--7--7--9--|--9--9--9--9--9--9--9--9-|
|---5--5--5--5--5--5--5--7--|--7--7--7--7--7--7--7--7-|


Simbología:

<> =Armónicos naturales
s  =Deslice
x  =Nota muda
M  =Mute de Palma
Suggest correction
Give kudos to tab author, rate the tab!
1 2 3 4 5
comments
print report bad tab
guest
You may want to rate the tab now too:
select rating
Wanna post a correction for this tab? Suggest correction