Oops, an error
Loading. Please wait.

Playboy Bass

by Tronic
43 views 1 this week
no commentswrite comment
1 2 3 4 5
3 more votes to show rating
add to favorites
×
Save as Personal and add changes to this tab that will be seen only by you. Learn more ›
×
You can save this tab as Personal to edit and correct it or add notes. All changes will be seen only by you. Learn more »
save as personal
new!
launch autoscroll
font size
0
reset
guitar tuner
Autoscroll
slow
fast
+/-
esc
set tempo
stop
Tronic ? play boy

Aki les dejo esta q esta bien vkn
Y no se ekivoken es 10 no 1 y 0
Y a tokar q esta bien

Intro

G-------------------------
D-----------1010101010x---
A--33333333---------------
E-------------------------

Verso
Ella tiene sex a peel y un aire comercial
G----------------------------
D----------------------------
A--33333---------------------
E--------33333-11111-33333---
pero siempre busca chicos con buena verga
G--------------------------------
D--------------------5-3-2-------
A--33333-------------------5-3---
E--------33333-11111-------------
Un dia en canada encontro algo especial
G----------------------------
D----------------------------
A--33333---------------------
E--------33333-11111-33333---
un lugar donde los chicos tenian tres piernas
G----------------------------
D----------------------------
A--33333---------------------
E--------33333-11111-33333---

Pre-Coro
ella kiso concretar una cita especial con un chico ke era
G---------------------------------
D---------------------------------
A--------3~----88888-1010101010---
E--1~-3~----5~--------------------

Coro
playboy elegante con estilo
G------------------------------------
D---------5/10-10-10-----------------
A--333333------------8888-10101010---
E------------------------------------
fashion casi como un bruce lee
G------------------------------------
D---------5/10-10-10-----------------
A--333333------------8888-10101010---
E------------------------------------
moderno con cero por ciento intelectual
G------------------------------------------------
D----------------------------------1010101010x---
A-----------8888-10101010-33333333---------------
E--55555555--------------------------------------

Verso

Aburrida la cote se volvio de canada
G----------------------------
D----------------------------
A--33333---------------------
E--------33333-11111-33333---
se bajo del taxi en suecia compro videncia
G--------------------------------
D--------------------5-3-2-------
A--33333-------------------5-3---
E--------33333-11111-------------
una chica la invito a una de esas fiesta top
G----------------------------
D----------------------------
A--33333---------------------
E--------33333-11111-33333---
donde todos kieren ser florero de mesa
G----------------------------
D----------------------------
A--33333---------------------
E--------33333-11111-33333---

Pre-Coro
aburrida la cote decicio ser mas audaz le agarro el culo a un
G---------------------------------
D---------------------------------
A--------3~----88888-1010101010---
E--1~-3~----5~--------------------

Coro
playboy elegante con estilo
G------------------------------------
D---------5/10-10-10-----------------
A--333333------------8888-10101010---
E------------------------------------
fashion casi como un bruce lee
G------------------------------------
D---------5/10-10-10-----------------
A--333333------------8888-10101010---
E------------------------------------
moderno con cero por ciento intelectual
G---------------------------
D---------------------------
A-----------8888-10101010---
E--55555555-----------------

La parte del solo

G------------------------------
D------------------------------
A--33333333-88888-1010101010---
E------------------------------

G------------------------------
D------------------------------
A--33333333-1010101010-88888---
E------------------------------

G------------------------------
D------------------------------
A--33333333-88888-1010101010---
E------------------------------

G------------------------------
D------------------------------
A--33333333-1010101010-88888---
E------------------------------

Coro
playboy elegante con estilo
G------------------------------------
D---------5/10-10-10-----------------
A--333333------------8888-10101010---
E------------------------------------
fashion casi como un bruce lee
G------------------------------------
D---------5/10-10-10-----------------
A--333333------------8888-10101010---
E------------------------------------
moderno con cero por ciento intelectual
G------------------------------------------------
D----------------------------------1010101010x---
A-----------8888-10101010-33333333---------------
E--55555555--------------------------------------


Bueno too bien lo unico q tengo q decir es q si se dan cuenta en
las canciones de ES HORA DE LIMPIAR LA CASA rigo usa mucha notas
agudas en el bajo y eso es lo q ace q te marees XD
Cualkier cosa a mi correo          max_2994@
dale too esta bn disfrutenlo
Suggest correction
Give kudos to tab author, rate the tab!
1 2 3 4 5
comments
print report bad tab
guest
Wanna post a correction for this tab? Suggest correction