Oops, an error
Loading. Please wait.

Playboy Tab

28 views 1 this week
no commentswrite comment
1 2 3 4 5
3 more votes to show rating
add to favorites
launch autoscroll
font size
0
reset
how to read this tab
guitar tuner
Autoscroll
slow
fast
+/-
esc
set tempo
stop
Help us to improve Ultimate-Guitar.com Take our survey!
×
Intro: Do [x20] Hacia arriba y abajo, guiense con la cancion xD

   DO    SOL5    FA5    LA5
e/--3----------------------------/
B/--5----------------------------/
G/--5----------------------------/    <-------Acordes
D/--5------5------3------7-------/
A/--3------5------3------7-------/
E/--x------3------1------5-------/

Los dos primeros versos van con un rasgueo doble simple:

e/---x-----3------x------3-------/
B/---x-----5------x------5-------/
G/---x-----5------x------5-------/
D/---x-----5------x------5-------/
A/---x-----3------x------3-------/  asi sale algo, en todo caso
E/-------------------------------/  estoy trabajando en el Guitar
                                    Pro de esta cancion

DO        SOL5      FA5       SOL5
Ella tiene sex appeal y un aire comercial
DO         SOL5     FA5      SOL5
pero siempre busca chicos con buena verga
DO     SOL5      FA5      SOL5
Un día en Canadá encontró algo especial
DO     SOL5      FA5     SOL5
un lugar donde los chicos tenían tres piernas

FA5   SOL5      DO      LA5           FA5    SOL5
Ella quiso concretar una cita especial con un chico ke era...

DSOL5      Sol5(x2)
Playboy!
FA5         SOL5
Elegante con estilo
DSOL5      Sol5(x2)
fashion!
FA5        SOL5
Casi como un Bruce Lee
LA5
moderno!
FA5           SOL5         DO
Con cero por ciento intelectual

Aburrida la Coté se volvió de Canadá
se bajó del taxi en Suecia con Providencia
Una chica la invitó a una de esas fiestas top
donde todos quieren ser el florero de mesa

Aburrida la Coté decidió ser más audaz le agarró el culo a un...

Playboy!
Elegante con estilo
fashion!
Casi como un Bruce Lee
moderno!
Con cero por ciento intelectual (X2)


Solo

e/---------------------------------------------------------/
B/---------------------------------------------------------/
G/-5-4-5--5-4-5--5-4-5-7-5-4-5--5-4-5--5-4-5--7-5-7--9-8-9-/
D/---------------------------------------------------------/
A/---------------------------------------------------------/
E/---------------------------------------------------------/

e/---------------------------------------------------------/
B/---------------------------------------------------------/
G/-9-7-9--9-7-9--10-9-10-12-10-9-10--12-10-12--12-10-12----/
D/---------------------------------------------------------/
A/---------------------------------------------------------/
E/---------------------------------------------------------/

e/---------------------------------------------------------/
B/-------------12-12-12-12---------------------------------/
G/--14-12-14-----------------------------------------------/


Bueno aki mi primer aporte, una cancionaza de tronic 100%
dedikacion y bueno ojala les guste
Estoy trabajando el guitar pro, casi terminandolo y si alguien
lo kiere aki les dejo mi mail


Eso salu2, y viva la musica chilena y viva Tronic!!!!!! xP
Suggest correction
Give kudos to tab author, rate the tab!
1 2 3 4 5
comments
print report bad tab
guest
You may want to rate the tab now too:
select rating
Wanna post a correction for this tab? Suggest correction