Oops, an error
Loading. Please wait.

Sin Fronteras Tab

19 views 1 this week
no commentswrite comment
1 2 3 4 5
3 more votes to show rating
add to favorites
launch autoscroll
font size
0
reset
how to read this tab
guitar tuner
Autoscroll
slow
fast
+/-
esc
set tempo
stop
Help us to improve Ultimate-Guitar.com Take our survey!
×
INTRO I:
1|---------------------|
2|---------------------|
3|---------------------|(x4)
4|--77777--11--xxxx----|
5|-------------xxxx----|
6|--55555--9---xxxx----|

INTRO II:
1|----------------|---------------|
2|----------------|---------------|
3|--666666--11--9-|-666666--11--9-|
4|----------------|---------------|
5|--444444--9---7-|-444444--9---7-|
6|----------------|---------------|

1|--------------------------------------------------|
2|--------------------------------------------------|
3|-666666--11--9--11----14-13----11-10-9-8----------|
4|--------------------------------------------------|
5|-444444--9---7--9-----12-11----9--8--7-6----------|
6|--------------------------------------------------|

Verso I: Voy a la playa con sonrisa...

1|----5---4---5--------------|----5---4--2-2-4-4-5-5-4-2------|
2|--------------7---7-5-3-2--|--------------------------------|
3|--6---6--------------------|--6---6-------------------------|(x2)
4|---------------------------|--------------------------------|
5|---------------------------|--------------------------------|
6|---------------------------|--------------------------------|

Pre-Coro: Paz y amor...

1|------------------------------------------------------|
2|-------5--10--------7---5----------10--3--------7-----|
3|-----6----11------7-----6-------11-----4------7-------|
4|---6------11----7-------6----11--------4----7---------|
5|-4--------9---5---------4--9-----------2--5-----------|
6|------------------------------------------------------|

Por que muchas chicas...
1|-------------------------------------------------------------------|
2|-------------------------------------------------------------------|
3|-6-6-6-6-4-4-4-4-----------------6-6-6-6-7-7-7-7-9-9-9-9--7--------|
4|-6-6-6-6-4-4-4-4-7-7-7-7-9-9-9-9-6-6-6-6-7-7-7-7-9-9-9-9--7--------|
5|-4-4-4-4-2-2-2-2-7-7-7-7-9-9-9-9-4-4-4-4-5-5-5-5-7-7-7-7--5--------|
6|-----------------5-5-5-5-7-7-7-7-----------------------------------|

Coro: hemos tocado en chillan...

1ª Guitarra
1|-----------------------------------|----------------------------------------|
2|-----------------------------------|----------------------------------------|
3|--------999999-666666-777777-(x2)--|-9999-7777-6666-7777-9999-7777-6666-7---|
4|-777777-999999-666666-777777-------|-9999-7777-6666-7777-9999-7777-6666-7---|
5|-777777-777777-444444-555555-------|-7777-5555-4444-5555-7777-5555-4444-5---|
6|-555555----------------------------|----------------------------------------|

2ª Guitarra

1|-----------------------------------|----------------------------------------|
2|-----------------------------------|----------------------------------------|
3|-666666-999999-666666-777777--(x2)-|-9999-7777-6666-7777-9999-7777-6666-7---|
4|-----------------------------------|----------------------------------------|
5|-444444-777777-444444-555555-------|-7777-5555-4444-5555-7777-5555-4444-5---|
6|-----------------------------------|----------------------------------------|

INTRO II:
1|----------------|---------------|
2|----------------|---------------|
3|--666666--11--9-|-666666--11--9-|
4|----------------|---------------|
5|--444444--9---7-|-444444--9---7-|
6|----------------|---------------|

1|--------------------------------------------------|
2|--------------------------------------------------|
3|-666666--11--9--11----14-13----11-10-9-8----------|
4|--------------------------------------------------|
5|-444444--9---7--9-----12-11----9--8--7-6----------|
6|--------------------------------------------------|

Verso II: llego a la nieve en camisa

1|----5---4---5--------------|----5---4--2-2-4-4-5-5-4-2------|
2|--------------7---7-5-3-2--|--------------------------------|
3|--6---6--------------------|--6---6-------------------------|(x2)
4|---------------------------|--------------------------------|
5|---------------------------|--------------------------------|
6|---------------------------|--------------------------------|

Pre-Coro: Divercion...

1|------------------------------------------------------|
2|-------5--10--------7---5----------10--3--------7-----|
3|-----6----11------7-----6-------11-----4------7-------|
4|---6------11----7-------6----11--------4----7---------|
5|-4--------9---5---------4--9-----------2--5-----------|
6|------------------------------------------------------|

Por que muchas chicas...
1|-------------------------------------------------------------------|
2|-------------------------------------------------------------------|
3|-6-6-6-6-4-4-4-4-----------------6-6-6-6-7-7-7-7-9-9-9-9--7--------|
4|-6-6-6-6-4-4-4-4-7-7-7-7-9-9-9-9-6-6-6-6-7-7-7-7-9-9-9-9--7--------|
5|-4-4-4-4-2-2-2-2-7-7-7-7-9-9-9-9-4-4-4-4-5-5-5-5-7-7-7-7--5--------|
6|-----------------5-5-5-5-7-7-7-7-----------------------------------|

Coro: hemos tocado en chillan...

1ª Guitarra
1|-----------------------------------|----------------------------------------|
2|-----------------------------------|----------------------------------------|
3|--------999999-666666-777777-(x2)--|-9999-7777-6666-7777-9999-7777-6666-7---|
4|-777777-999999-666666-777777-------|-9999-7777-6666-7777-9999-7777-6666-7---|
5|-777777-777777-444444-555555-------|-7777-5555-4444-5555-7777-5555-4444-5---|
6|-555555----------------------------|----------------------------------------|

2ª Guitarra

1|-----------------------------------|----------------------------------------|
2|-----------------------------------|----------------------------------------|
3|-666666-999999-666666-777777--(x2)-|-9999-7777-6666-7777-9999-7777-6666-7---|
4|-----------------------------------|----------------------------------------|
5|-444444-777777-444444-555555-------|-7777-5555-4444-5555-7777-5555-4444-5---|
6|-----------------------------------|----------------------------------------|

Intermedio: y ahora todos los chicos y chicas presentes....

1|----------------|
2|----------------|
3|--666666--11--9-| (x8)
4|----------------|
5|--444444--9---7-|
6|----------------|

SOLO:

1|------------------------|---------------------------|
2|-10-9-10---9-10-7-5-7-9-|-10-9-10---9-10-12-10-9-10-|
3|------------------------|---------------------------|
4|------------------------|---------------------------|
5|------------------------|---------------------------|
6|------------------------|---------------------------|


1|----------------------------------------|
2|-14-14-14-14-14-14-14-12-12-12-12-12-12-|
3|----------------------------------------|
4|----------------------------------------|
5|----------------------------------------|
6|----------------------------------------|

1|-----------------------------------------|
2|-14-12-14-12-14-12-14-12--15-14-12-10----|
3|-----------------------------------------|
4|-----------------------------------------|
5|-----------------------------------------|
6|-----------------------------------------|

Coro Final: hemos tocado en chillan...

1ª Guitarra
1|-----------------------------------|
2|-----------------------------------|
3|--------999999-666666-777777-(x2)--|
4|-777777-999999-666666-777777-------|
5|-777777-777777-444444-555555-------|
6|-555555----------------------------|

1|--------------------------------------------|
2|--------------------------------------------|
3|-9999-7777-6666-7777-9999-7777-6666-44-44-7-|
4|-9999-7777-6666-7777-9999-7777-6666-44-44-7-|
5|-7777-5555-4444-5555-7777-5555-4444-22-22-5-|
6|--------------------------------------------|

2ª Guitarra

1|-----------------------------------|
2|-----------------------------------|
3|-666666-999999-666666-777777--(x2)-|
4|-----------------------------------|
5|-444444-777777-444444-555555-------|
6|-----------------------------------|

1|---------------------------------------------|
2|---------------------------------------------|
3|-9999-7777-6666-7777-9999-7777-6666-44-44-7--|
4|---------------------------------------------|
5|-7777-5555-4444-5555-7777-5555-4444-22-22-5--|
6|---------------------------------------------|

FIN

Espero que les sirva mucho :D
\CHEIGION//
CHECHOCASTILLO
Suggest correction
Give kudos to tab author, rate the tab!
1 2 3 4 5
comments
print report bad tab
guest
You may want to rate the tab now too:
select rating
Wanna post a correction for this tab? Suggest correction