Oops, an error
Loading. Please wait.

Tiempo Tab

16 views 1 this week
no commentswrite comment
1 2 3 4 5
3 more votes to show rating
add to favorites
launch autoscroll
font size
0
reset
how to read this tab
guitar tuner
Autoscroll
slow
fast
+/-
esc
set tempo
stop
Help us to improve Ultimate-Guitar.com Take our survey!
×
e|-------------------------------------|
b|--------5----------------------------|
g|--5--7-----7--5---5--7--4--2--4--4---|
d|-------------------------------------|
a|-------------------------------------|
e|-------------------------------------|

e|-------------------------------------|
b|--------5----------------------------|
g|--5--7-----7--5---5--7--4--2--4------|
d|-------------------------------------|
a|-------------------------------------|
e|-------------------------------------|

e|---------------------------------------|
b|--------5------------------------------|
g|--5--7-----7--5---5--7--4--2--4--4--5--|
d|---------------------------------------|
a|---------------------------------------|
e|---------------------------------------|

e|----------------------------|
b|--------5--------------5-5--|
g|--5--7-----7--5-5--7-7------|
d|----------------------------|
a|----------------------------|
e|----------------------------|

e|----------------------------|
b|--6-5-3-5-6-5-3--1-3-5-8-8--|
g|----------------------------|
d|----------------------------|
a|----------------------------|
e|----------------------------|

e|-------------------------|
b|--8-6-5-6--5-3-5--3-3-1--|
g|-------------------------|
d|-------------------------|
a|-------------------------|
e|-------------------------|

e|----------------------------|
b|--6-5-3-5-6-5-3--1-3-5-8-8--|
g|----------------------------|
d|----------------------------|
a|----------------------------|
e|----------------------------|

e|-------------------------|
b|--8-6-5-6--5-3-5--3-3-1--|
g|-------------------------|
d|-------------------------|
a|-------------------------|
e|-------------------------|

e|-------------------------------------|
b|--------5----------------------------|
g|--5--7-----7--5---5--7--4--2--4--4---|
d|-------------------------------------|
a|-------------------------------------|
e|-------------------------------------|

e|-------------------------------------|
b|--------5----------------------------|
g|--5--7-----7--5---5--7--4--2--4------|
d|-------------------------------------|
a|-------------------------------------|
e|-------------------------------------|

e|---------------------------------------|
b|--------5------------------------------|
g|--5--7-----7--5---5--7--4--2--4--4--5--|
d|---------------------------------------|
a|---------------------------------------|
e|---------------------------------------|


e|----------------------------|
b|--6-5-3-5-6-5-3--1-3-5-8-8--|
g|----------------------------|
d|----------------------------|
a|----------------------------|
e|----------------------------|

e|-------------------------|
b|--8-6-5-6--5-3-5--3-3-1--|
g|-------------------------|
d|-------------------------|
a|-------------------------|
e|-------------------------|

e|----------------------------|
b|--6-5-3-5-6-5-3--1-3-5-8-8--|
g|----------------------------|
d|----------------------------|
a|----------------------------|
e|----------------------------|

e|-------------------------|
b|--8-6-5-6--5-3-5--3-3-1--|
g|-------------------------|
d|-------------------------|
a|-------------------------|
e|-------------------------|
Suggest correction
Give kudos to tab author, rate the tab!
1 2 3 4 5
comments
print report bad tab
guest
You may want to rate the tab now too:
select rating
Wanna post a correction for this tab? Suggest correction