Oops, an error
Loading. Please wait.

Triklosan Bass Tab

9 views 1 this week
no commentswrite comment
1 2 3 4 5
3 more votes to show rating
add to favorites
launch autoscroll
font size
0
reset
guitar tuner
×
Best way to learn
"Triklosan"
Autoscroll
slow
fast
+/-
esc
set tempo
stop
EADG

Ok broders
kreo ke el bajo empieza en el intro
junto a la entrada..Emm al prinsipio no lo kreia
Pero despues eskuxando bien kaxe ke de verdad
Parese ke si :P

Intro
1.
G|------------------------------|
D|------------------------------|
A|-----2~--3-----------2~--3----|
E|-2~--------3~--5-2~--------3~-|

2.
G|---------------------------------------|
D|---------------------------------------|
A|----------22-22-333--------------------|--x2
E|-22-02020-----------33-3333-0-3333-555-|

Verso
[Ke lava mejor, ke limpia mejor..]
3.
G|---------------------------------------------------------|
D|---------------------------------------------------------|
A|---------------222-00222-022-----------------------------|--x2
E|-222-00222-022---------------333-00333-033-333-00333-033-|

Koro
[Ya no kiero koka kola..]
4.
G|-------------------------------|
D|-------------------------------|
A|-------------------------------|
E|-2~----------33-33030-3333-555-|

[Ya no kiero koka kola..]
5.
G|---------------------------------------|
D|---------------------------------------|
A|----------22-22-333--------------------|
E|-22-02020-----------33-3333-0-3333-555-|

Verso
[Pero no son de verdad..]
6.
G|---------------------------------------------------------|
D|---------------------------------------------------------|
A|---------------222-00222-022-----------------------------|
E|-222-00222-022---------------333-00333-033-333-00333-033-|

Koro
[Ya no kiero koka kola..]
7.
G|-------------------------------|
D|-------------------------------|
A|-------------------------------|
E|-------------33-33030-3333-555-|

[Ya no kiero koka kola..]
8.
G|---------------------------------------|
D|---------------------------------------|
A|----------22-22-333--------------------|
E|-22-02020-----------33-3333-0-3333-555-|

Solo de witarra
9.
G|---------------------------------------|
D|-44-24242------------------------------|
A|----------22-22-333--------------------|--x2
E|--------------------33-3333-0-3333-555-|

Verso
[Ya no kiero koka kola..]
10.
G|-------------------------------------------|
D|-------------------------------------------|
A|---------------222-00222-022---------------|
E|-222-00222-022---------------333-00333-033-|

Koro
[Ya no kiero koka kola..]
11.
G|---------------------------------------|
D|---------------------------------------|
A|----------22-22-333--------------------|--x2
E|-22-02020-----------33-3333-0-3333-555-|

12.
G|---------------------------------------|
D|-44-24242------------------------------|
A|----------22-22-333--------------------|--x2
E|--------------------33-3333-0-3333-555-|

13.
G|-----|
D|-----|
A|-----|
E|-2~--|

Ahi esta weones!
Un saludo pal SammY (Nose porke xuxa le disen asi)
Ke me motivo a sakar esta song :P

+++++++++++++++++++++++

Letra:

Ya no kiero eskuxar tu voz komersial
Ofresiendo el mejor producto kon Triclozan
Ke lava mejor, ke limpia mejor
Y ami me da lo mismo
Y todo esta mas karo
En esta sosiedad

Ya no kiero koka kola, ni la fanta, ni la sprite
Ya no kiero koka kola, ni la fanta, ni la spra a a a aite

Prendo la television
Me enkuentro kon los Rolling Stones
Pero no son de verdad
Es un anunsio de la

Ya no kiero koka kola, ni la fanta, ni la sprite
Ya no kiero koka kola, ni la fanta, ni la spra a a a aite

++++++++++++++++++++++++

+++++++++++++++++++++++++++++++++
| RaiLeff                       |
| Underground__Dora@ |
+++++++++++++++++++++++++++++++++
Suggest correction
Give kudos to tab author, rate the tab!
1 2 3 4 5
comments
print report bad tab
guest
You may want to rate the tab now too:
select rating
Wanna post a correction for this tab? Suggest correction