Oops, an error
Loading. Please wait.

Almas Gemelas Bass Tab

53 views 1 this week
no commentswrite comment
1 2 3 4 5
3 more votes to show rating
add to favorites
launch autoscroll
font size
0
reset
guitar tuner
Autoscroll
slow
fast
+/-
esc
set tempo
stop
Help us to improve Ultimate-Guitar.com Take our survey!
×
 bueno espero que les guste esta rola esta muy chida y a demas muy
 facil


intro

G)-----------------------------------------------------------------
D)--------------6--6--6--6-6--------------6--6--6--6-6---6--6------
A)-6--6--6--6789--6--6--6-6-96--6--6--6789--6--6--6-6--4--4--------
E)---6--6--6-------------------6--6--6-----------------------4--4--
B)-------------------------------------------------------------4--4


G)------------------------------
D)6--6--------------------------
A)--6--6-8--8--8----8--8--8-----
E)--------8--8--8-6--6--6--6789-
B)------------------------------

 verso 1

 no se a que hora fue que te olvide
G)-----------------------------------------------------------------
D)--------------6--6--6--6-6--------------6--6--6--6-6---6--6------
A)-6--6--6--6789--6--6--6-6-96--6--6--6789--6--6--6-6--4--4--------
E)---6--6--6-------------------6--6--6-----------------------4--4--
B)-------------------------------------------------------------4--4


G)------------------------------
D)6--6--------------------------
A)--6--6-8--8--8----8--8--------
E)--------8--8--8-6--6--6789----
B)------------------------------

verso2

  tu rostro en tus labios se esfumo
G)-----------------------------------------------------------------
D)--------------6--6--6--6-6--------------6--6--6--6-6---6--6------
A)-6--6--6--6789--6--6--6-6-96--6--6--6789--6--6--6-6--4--4--------
E)---6--6--6-------------------6--6--6-----------------------4--4--
B)-------------------------------------------------------------4--4


G)------------------------------
D)6--6--------------------------
A)--6--6-8--8--8----8--8--------
E)--------8--8--8-6--6--6789----
B)------------------------------

coro 1
acordes. Eb-Bb-C#m-G#m-Ab-Fm-Bb
 parecia que la conocia de otra vida
G)-----------------------------------------------------------------
D)-----------------6--6--------6--6--------------------------------
A)-6--6-----8---4---4------------6--6-8--8----8--8--8--------------
E)---6--6-6--67---------4--4------------8--8-6--6--6-6789----------
B)------------------------4--4-------------------------------------


coro 2
acordes. Eb-Bb-C#m-G#m-Ab-Fm-Bb
 parecia que la amaba desde el primer dia
G)------------------------------------------------------------------
D)-----------------6--6--------6--6---------------------------------
A)-6--6-----8---4---4------------6--6-8--8----8--8--8----6--6--6----
E)---6--6-6--67---------4--4------------8--8-6--6--6-6789-6--6--6789
B)------------------------4--4--------------------------------------


intro 2

G)-----------------------------------------------------------------
D)--------------6--6--6--6-6--------------6--6--6--6-6---6--6------
A)-6--6--6--6789--6--6--6-6-96--6--6--6789--6--6--6-6--4--4--------
E)---6--6--6-------------------6--6--6-----------------------4--4--
B)-------------------------------------------------------------4--4


G)------------------------------
D)6--6--------------------------
A)--6--6-8--8--8----8--8--8-----
E)--------8--8--8-6--6--6--6789-
B)------------------------------


verso3

  tu rostro en tus labios se esfumo
G)-----------------------------------------------------------------
D)--------------6--6--6--6-6--------------6--6--6--6-6---6--6------
A)-6--6--6--6789--6--6--6-6-96--6--6--6789--6--6--6-6--4--4--------
E)---6--6--6-------------------6--6--6-----------------------4--4--
B)-------------------------------------------------------------4--4


G)------------------------------
D)6--6--------------------------
A)--6--6-8--8--8----8--8--------
E)--------8--8--8-6--6--6789----
B)------------------------------


coro 1
acordes. Eb-Bb-C#m-G#m-Ab-Fm-Bb
 parecia que la conocia de otra vida
G)------------------------------------------------------------
D)-----------------6--6--------6--6---------------------------
A)-6--6-----8---4---4------------6--6-8--8----8--8--8---------
E)---6--6-6--67---------4--4------------8--8-6--6--6-6789-----
B)------------------------4--4--------------------------------
coro 2
acordes. Eb-Bb-C#m-G#m-Ab-Fm-Bb
 parecia que la amaba desde el primer dia
G)-------------------------------------------------------------
D)-----------------6--6--------6--6----------------------------
A)-6--6-----8---4---4------------6--6-8--8----8--8--8--8--8----
E)---6--6-6--67---------4--4------------8--8-6--6--6--6--6--6--
B)------------------------4--4---------------------------------


 BUENO ESTO ES ALGO DEL TRONO DE MEXICO ES TA MUY CHIDA ESPERO
QUE LES AYA GUSTADO CUALQUIER DUDA
 O SUGERENCIA PUES FAVOR DE HACERMELO SABER

 ME LLAMO RICARDO ZARATE MARTINEZ SOY DE CELAYA GUANAJUATO Y
 MI GRUPO
 SE LLAMA ESTATUAS DE ARENA... GRACIAS LES DEJO MI CORREO

 HIELO_HIELO22@
Suggest correction
Give kudos to tab author, rate the tab!
1 2 3 4 5
comments
print report bad tab
guest
You may want to rate the tab now too:
select rating
Wanna post a correction for this tab? Suggest correction