Oops, an error
Loading. Please wait.

Te Ves Fatal Bass Tab

53 views 1 this week
no commentswrite comment
1 2 3 4 5
3 more votes to show rating
add to favorites
launch autoscroll
font size
0
reset
guitar tuner
Autoscroll
slow
fast
+/-
esc
set tempo
stop
Help us to improve Ultimate-Guitar.com Take our survey!
×
BUENO LES DEJO ESTA ROLA QUE LA VDD ESTA MUY CHIDA

INTRO
 ACORDES A,E,F#,D,B,E   REPITE 1 VES

G)--------------------------------------------------------------------
D)-7-7----------------------------------------------------------------
A)--7-567-7-8-9-9-5-5---9-97-7-7-7------------------------------------
E)-------7-----9-9-5-567-7--7-7-7-7-----------------------------------

VERSO
  ACORDES A,E,F#,D
  YA LO VES SIGO VIVO
G)--------------------------------------------------------------------
D)-7-7----------------7-7---------------------------------------------
A)--7-567-7-8-9-9-5-56-7-567-7-8-9-9-5-56-----------------------------
E)-------7-----9-9-5--------7-----9-9-5-------------------------------
ACORDES A,E,F#,D,E
  EN CAMBIO TU TEVES NERVIOSA
G)--------------------------------------------------------------------
D)-7-7----------------7-7---------------------------------------------
A)--7-567-7-8-9-9-5-56-7-567-7-8-9-9-5-5-7-7-7------------------------
E)-------7-----9-9-5--------7-----9-9-5-5-7-7-------------------------

 CORO
 ACORDES A,E,F#,D,B,E
  EN CAMBIO TU DEVERAS QUE TE VES FATAL
G)--------------------------------------------------------------------
D)-7-7-----------------------------7-7--------------------------------
A)--7-567-7-8-9-9-5-5---9-97-7-7-7--7-567-7-8-9-9-5-5---9-97-7-7------
E)-------7-----9-9-5-567-7--7-7-7-7------7-----9-9-5-567-7--7-7-------

intro2
 ACORDES A,E,F#,D,B,E   REPITE 1 VES

G)--------------------------------------------------------------------
D)-7-7----------------------------------------------------------------
A)--7-567-7-8-9-9-5-5---9-97-7-7-7------------------------------------
E)-------7-----9-9-5-567-7--7-7-7-7-----------------------------------


VERSO2
  ACORDES A,E,F#,D
  YA LO VES SIGO VIVO
G)--------------------------------------------------------------------
D)-7-7----------------7-7---------------------------------------------
A)--7-567-7-8-9-9-5-56-7-567-7-8-9-9-5-56-----------------------------
E)-------7-----9-9-5--------7-----9-9-5-------------------------------

ACORDES A,E,F#,D,E
  EN CAMBIO TU TEVES NERVIOSA
G)--------------------------------------------------------------------
D)-7-7----------------7-7---------------------------------------------
A)--7-567-7-8-9-9-5-56-7-567-7-8-9-9-5-5-7-7-7------------------------
E)-------7-----9-9-5--------7-----9-9-5-5-7-7-------------------------


 CORO2
 ACORDES A,E,F#,D,B,E
  EN CAMBIO TU DEVERAS QUE TE VES FATAL
G)--------------------------------------------------------------------
D)-7-7-----------------------------7-7--------------------------------
A)--7-567-7-8-9-9-5-5---9-97-7-7-7--7-567-7-8-9-9-5-5---9-97-7-7-7----
E)-------7-----9-9-5-567-7--7-7-7-7------7-----9-9-5-567-7--7-7-7-7---


 CORO
 ACORDES A,E,F#,D,B,E
  EN CAMBIO TU DEVERAS QUE TE VES FATAL
G)--------------------------------------------------------------------
D)-7-7-----------------------------7-7--------------------------------
A)--7-567-7-8-9-9-5-5---9-97-7-7-7--7-567-7-8-9-9-5-5---9-97-7-7------
E)-------7-----9-9-5-567-7--7-7-7-7------7-----9-9-5-567-7--7-7-------

EL FINAL
 ACORDES  C#,E
Y YO SIGO EN PIEEEE
G)--------------------------------------------------------------------
D)---------7-7--57-7-7------------------------------------------------
A)-4-4-4-4--7-78--7-7-------------------------------------------------
E)--4-4-4-4-----------------------------------------------------------


 BUENO ESPERO QUE LES SALGA LA ROLA LES MANDO SALUDOS Y YA SABEN

CUAL QUIER SUGERENCIA FAVOR DE COMUNICARMELO CUDENCE LES MANDO
SALUDOS DESDE CELAYA LES DEJO MI MSN

HIELO_HIELO22@
Suggest correction
Give kudos to tab author, rate the tab!
1 2 3 4 5
comments
print report bad tab
guest
You may want to rate the tab now too:
select rating
Wanna post a correction for this tab? Suggest correction