Oops, an error
Loading. Please wait.

Volver A Amar Tab

23 views 1 this week
no commentswrite comment
1 2 3 4 5
3 more votes to show rating
add to favorites
launch autoscroll
font size
0
reset
how to read this tab
guitar tuner
×
Best way to learn
"Volver A Amar"
Autoscroll
slow
fast
+/-
esc
set tempo
stop
Este es el intro de la cancion:
Les puse numeros para diferenciar un acorde de otro,
chequenlo bien.

      654321 <-------Estas son las cuerdas
1Eb   668886
1Bb   688766
1Bb7  686766
Cm    335543
Ab    466544
2Bb   113331

Estos son los acordes que lo aconpañan:

1Eb 1Bb 1Bb7 Cm Ab 2Bb

Inicio:
1-5/6-6-6?-5/6-6-6?-5/6-6---6-6-8-10----
2---------------------------------------

1-5/6-6?-5/6-6-6-6--5/6-6--6-6-4-3-3-3--
2---------------------------------------

1-3-3-3-3-3-4---------------------------
2-------------4-4-8-6-------------------

.
.
.
.
.

Enmedio:
1-5/6-6-6?-5/6-6-6?-5/6-6---6-6-8-10----
2---------------------------------------

1-5/6-6?-5/6-6-6-6--5/6-6--6-6-4-3-3-3--
2---------------------------------------

1-3-3-3-3-3-4---------------------------
2-------------4-4-8-6-------------------


2-10/11-11-11?10/11-11-11?10/11-11--11-11-13-15
3---------------------------------------

2-10/11-11-10/11-11-11-11-10/11-11-11-11-9-8-8-8
3----------------------------------------------

2-8-8-8-8-8-9----------------------------------
3-------------8-8-12-10------------------------

.
.
.
.

Final:
2-10/11-11-11?10/11-11-11?10/11-11--11-11-13-15
3---------------------------------------

2-10/11-11-10/11-11-11-11-10/11-11-11-11-9-8-8-8
3----------------------------------------------

2-8-8-8-8-8-9----------------------------------
3-------------8-8-12-10------------------------
Suggest correction
Give kudos to tab author, rate the tab!
1 2 3 4 5
comments
print report bad tab
guest
You may want to rate the tab now too:
select rating
Wanna post a correction for this tab? Suggest correction