Oops, an error
Loading. Please wait.

General Hand Grenade Tab

5,223 views 21 this week
1 commentread comment
1 2 3 4 5
please rate
add to favorites
launch autoscroll
font size
0
reset
how to read this tab
guitar tuner
Autoscroll
slow
fast
+/-
esc
set tempo
stop
Help us to improve Ultimate-Guitar.com Take our survey!
×
Author
Difficulty
Sloopy 2,640
intermediate
This song was written for two guitars, although this version still works. The
notes at the end of every line are optional.

e-|--------------------------------------------------------------|
B-|-3-3-3-3-3-3-3-3-3-3-3-3-3-3-2-3-3-3-3-3-3-3-3-5-3----3-------|
G-|-4-4-4-4-2-2-2-4-4-4-4-2-2-2-2-4-4-4-4-2-2-2-4-4-3------4p2p0-|
D-|-5-5-5-5-0-0-0-5-5-5-5-0-0-0-2-5-5-5-5-0-0-0-5-5-4-2h4--------|
A-|--------------------------------------------------------------|
E-|--------------------------------------------------------------|

e-|-3-3-3-3-2-2-2-3-3-3-3-2-2-2-0-3-3-3-3-2-2-2-3-3-3--------------|
B-|-3-3-3-3-3-3-3-3-3-3-3-3-3-3-2-3-3-3-3-3-3-3-3-5-3-----3------3-|
G-|-4-4-4-4-2-2-2-4-4-4-4-2-2-2-2-4-4-4-4-2-2-2-4-4-3--------------|
D-|-5-5-5-5-0-0-0-5-5-5-5-0-0-0-2-5-5-5-5-0-0-0-5-5-5-2h4---2h4----|
A-|----------------------------------------------------------------|
E-|----------------------------------------------------------------|

e-|-3-3-3-3-2-2-2-3-3-3-3-2-2-2-0-3-3-3-3-2-2-2-3-3-3-|
B-|-3-3-3-3-3-3-3-3-3-3-3-3-3-3-2-3-3-3-3-3-3-3-3-5-3-|
G-|-4-4-4-4-2-2-2-4-4-4-4-2-2-2-2-4-4-4-4-2-2-2-4-4-3-|
D-|-5-5-5-5-0-0-0-5-5-5-5-0-0-0-2-5-5-5-5-0-0-0-5-5-5-|
A-|---------------------------------------------------|
E-|---------------------------------------------------|

e-|----------------------------------------------------|
B-|----------------------------------------------------|
G-|----------------------------------------------------|
D-|---------4-7--------------------4-7------2----------|
A-|---2-5-5-------2-5-5-------2-5-5-----0-4---5--------|
E-|-3-----------3-------5-4-3--------------------------|

e-|--------------------------------------------------------------|
B-|-3-3-3-3-3-3-3-3-3-3-3-3-3-3-2-3-3-3-3-3-3-3-3-5-3----3-------|
G-|-4-4-4-4-2-2-2-4-4-4-4-2-2-2-2-4-4-4-4-2-2-2-4-4-3------4p2p0-|
D-|-5-5-5-5-0-0-0-5-5-5-5-0-0-0-2-5-5-5-5-0-0-0-5-5-5-2h4--------|
A-|--------------------------------------------------------------|
E-|--------------------------------------------------------------|

e-|-3-3-3-3-2-2-2-3-3-3-3-2-2-2-0-3-3-3-3-2-2-2-3-3-3-|
B-|-3-3-3-3-3-3-3-3-3-3-3-3-3-3-2-3-3-3-3-3-3-3-3-5-3-|
G-|-4-4-4-4-2-2-2-4-4-4-4-2-2-2-2-4-4-4-4-2-2-2-4-4-3-|
D-|-5-5-5-5-0-0-0-5-5-5-5-0-0-0-2-5-5-5-5-0-0-0-5-5-5-|
A-|---------------------------------------------------|
E-|---------------------------------------------------|

CHORUS It's hard to identify the guitars in the chorus but this
is what I got anyway.
            "High"            "Low"              "Go"
e-|-3-------3-3-------3-------3-2-------3---3---3-3-3-------------|
B-|-3-------3-3-------3-------3-3-------3---3---3-5-3-----3-----3-|
G-|-4-------4-4-------4-------4-2-------4---4---4-4-3-------------|
D-|-5-------5-5-------5-------5-0-------5---5---5-5-5-2h4---2h4---|
A-|---------------------------------------------------------------|
E-|---------------------------------------------------------------|

e-|-3-------3-3-------3-------3-2-------3---3---3-3-3-|
B-|-3-------3-3-------3-------3-3-------3---3---3-5-3-|
G-|-4-------4-4-------4-------4-2-------4---4---4-4-3-|
D-|-5-------5-5-------5-------5-0-------5---5---5-5-5-|
A-|---------------------------------------------------|
E-|---------------------------------------------------|

e-|----------------------------------------------x-x-x-x-|
B-|----------------------------------------------x-x-x-x-|
G-|----------------------------------------------x-x-x-x-|
D-|---------4-7---------------------4-7------2---x-x-x-x-|
A-|---2-5-5-------2-5-5-------2-5-5-----0-4----5---------|
E-|-3-----------3-------5-4-3----------------------------|

e-|----------------------------------------------------|
B-|----------------------------------------------------|
G-|----------------------------------------------------|
D-|---------4-7--------------------4-7------2----------|
A-|---2-5-5-------2-5-5-------2-5-5-----0-4---5--------|
E-|-3-----------3-------5-4-3--------------------------|

e-|--------------------------------------------------------------|
B-|-3-3-3-3-3-3-3-3-3-3-3-3-3-3-2-3-3-3-3-3-3-3-3-5-3----3-------|
G-|-4-4-4-4-2-2-2-4-4-4-4-2-2-2-2-4-4-4-4-2-2-2-4-4-3------4p2p0-|
D-|-5-5-5-5-0-0-0-5-5-5-5-0-0-0-2-5-5-5-5-0-0-0-5-5-4-2h4--------|
A-|--------------------------------------------------------------|
E-|--------------------------------------------------------------|

e-|-3-3-3-3-2-2-2-3-3-3-3-2-2-2-0-3-3-3-3-2-2-2-3-3-3--------------|
B-|-3-3-3-3-3-3-3-3-3-3-3-3-3-3-2-3-3-3-3-3-3-3-3-5-3-----3------3-|
G-|-4-4-4-4-2-2-2-4-4-4-4-2-2-2-2-4-4-4-4-2-2-2-4-4-3--------------|
D-|-5-5-5-5-0-0-0-5-5-5-5-0-0-0-2-5-5-5-5-0-0-0-5-5-5-2h4---2h4----|
A-|----------------------------------------------------------------|
E-|----------------------------------------------------------------|

e-|-3-3-3-3-2-2-2-3-3-3-3-2-2-2-0-3-3-3-3-2-2-2-3-3-3--------------|
B-|-3-3-3-3-3-3-3-3-3-3-3-3-3-3-2-3-3-3-3-3-3-3-3-5-3-----3------3-|
G-|-4-4-4-4-2-2-2-4-4-4-4-2-2-2-2-4-4-4-4-2-2-2-4-4-3--------------|
D-|-5-5-5-5-0-0-0-5-5-5-5-0-0-0-2-5-5-5-5-0-0-0-5-5-5-2h4---2h4----|
A-|----------------------------------------------------------------|
E-|----------------------------------------------------------------|

e-|-3-3-3-3-2-2-2-3-3-3-3-2-2-2-0-3-3-3-3-2-2-2-3-3-3-|
B-|-3-3-3-3-3-3-3-3-3-3-3-3-3-3-2-3-3-3-3-3-3-3-3-5-3-|
G-|-4-4-4-4-2-2-2-4-4-4-4-2-2-2-2-4-4-4-4-2-2-2-4-4-3-|
D-|-5-5-5-5-0-0-0-5-5-5-5-0-0-0-2-5-5-5-5-0-0-0-5-5-5-|
A-|---------------------------------------------------|
E-|---------------------------------------------------|

These same chords are also played in the chorus with Guitar 1
not in this order though.

e-|-----------------------------|
B-|-----------------------------|
G-|-----------------------------|
D-|-7---7---7-2---------------7-|
A-|-5---5---5-0---5---5-5-7-7-5-|
E-|---------------3---3-3-5-5---|

e-|-3-------3-3-------3-------3-2-------3---3---3-3-3-|
B-|-3-------3-3-------3-------3-3-------3---3---3-5-3-|
G-|-4-------4-4-------4-------4-2-------4---4---4-4-3-|
D-|-5-------5-5-------5-------5-0-------5---5---5-5-5-|
A-|---------------------------------------------------|
E-|---------------------------------------------------|

e-|-3-------3-3-------3-------3-2-------3---3---3-3-3-|
B-|-3-------3-3-------3-------3-3-------3---3---3-5-3-|
G-|-4-------4-4-------4-------4-2-------4---4---4-4-3-|
D-|-5-------5-5-------5-------5-0-------5---5---5-5-5-|
A-|---------------------------------------------------|
E-|---------------------------------------------------|

e-|-3-------3-3-------3-------3-2-------3---3---3-3-3-|
B-|-3-------3-3-------3-------3-3-------3---3---3-5-3-|
G-|-4-------4-4-------4-------4-2-------4---4---4-4-3-|
D-|-5-------5-5-------5-------5-0-------5---5---5-5-5-|
A-|---------------------------------------------------|
E-|---------------------------------------------------|

e-|------------------------------------|
B-|------------------------------------|
G-|------------------------------------|
D-|--------4-7---------4-7---------4-7-|
A-|---2-5-5------2-5-5-------2-5-5-----|
E-|-3----------3-----------3-----------|

OUTRO play 3 times plus the last chord once
Guitar 1                    Guitar 2
e-|-3-3-3----               e-|-------|
B-|-3-5-3----               B-|-------|
G-|-4-4-3----               G-|-7-9-7-|
D-|-5-5-5----               D-|-5-5-5-|
A-|----------               A-|-------|
E-|----------               E-|-------|
Suggest correction
What's this?
You can suggest a correction to this tab. Community and Mods will review your correction and vote to approve or reject it.
comments
We did not receive enough feedback on this tab! Please rate:
print report bad tab
1 2 3 4 5
1 comment total.
0 reply
KILO6 28 wrote on November 21 2009, 05:48 pm

Nice job! there are basically no tabs for this awsome song lol and this one sounds good but i was kinda thinking the last chord of the intro sounded a little funny

i think i actually just goes back to the

3 chord
anyways good job

guest
You may want to rate the tab now too:
select rating
Please do not post tabs as comments. Select "correction" instead!