Oops, an error
Loading. Please wait.

Chlorine Tab

1,303 views 57 this week
no commentswrite comment
1 2 3 4 5
2 more votes to show rating
add to favorites
launch autoscroll
font size
0
reset
how to read this tab
guitar tuner
Autoscroll
slow
fast
+/-
esc
set tempo
stop
Help us to improve Ultimate-Guitar.com Take our survey!
×
Author
Difficulty
Tuning
intermediate
D# G# C# F# A# D#
About this tab version
First tab for this song. Tabbed from a youtube cover. Was this info helpful? Yes No
TROPHY EYES- Chlorine
Half Step Down

This is as accurate as I could get it. I winged the final chords a little.  
Tabbed from a YouTube playthrough: https://www.youtube.com/watch?v=lqzOUrabX-Q


[Intro]

e|------------------5---5-------------------------------------|
B|-7---7---7---7-------------5---5----------------------------|
G|--7---7---7---7----7---7----7---7---------------------------|(x2)
D|---7---7---7---7----7---7----7---7--------------------------|
A|------------------------------------------------------------|
E|------------------------------------------------------------|


[Verse]

e|------------------5-----------------------------------------|
B|--7-------5-------7-----------------------------------------|
G|--7--x8---7--x8---7--x8-------------------------------------|(x4)
D|--7-------7-------7-----------------------------------------|
A|------------------------------------------------------------|
E|------------------------------------------------------------|


[Pre-Chorus 1]

e|------------------------------------------------------------|
B|------------------------------------------------------------|
G|------------------------------------------------------------|(x2)
D|----------4---------3h5p4-----------------------------------|
A|----------5---------5---5------------9-----------4-4--------|
E|--3-3-3-3-3---3-3-3-3---3---7-7-7-7--7---2-2-2-2-2-2--------|


[Chorus 1]

e|---------------------3-----2--------------------------------|
B|--7------------------3-----3--------------------------------|
G|--7-x8---------------0-----4--------------------------------|(x4)
D|--7------------------0-x8--4-x8-----------------------------|
A|--5------7--9--7--5--2-----2--------------------------------|
E|---------5--7--5--3--3-----2--------------------------------|


[Pre-Verse]

e|------------------5---5-------------------------------------|
B|-7---7---7---7-------------5---5----------------------------|
G|--7---7---7---7----7---7----7---7---------------------------|(x2)
D|---7---7---7---7----7---7----7---7--------------------------|
A|------------------------------------------------------------|
E|------------------------------------------------------------|


[Verse]

e|------------------5-----------------------------------------|
B|--7-------5-------7-----------------------------------------|
G|--7--x8---7--x8---7--x8-------------------------------------|(x4)
D|--7-------7-------7-----------------------------------------|
A|------------------------------------------------------------|
E|------------------------------------------------------------|


[Pre-Chorus 2]

e|------------------------------------------------------------|
B|------7-------7---------------------------------------------|
G|------------------------6-------6---------2-------2---------|
D|----7---7---7---7-----7---7---7---7-----0---0---0---0-------|
A|--5-------5---------4-------4---------2-------2-------------|
E|------------------------------------------------------------|

e|------------------------------------------------------------|
B|------------------------------------------------------------|
G|------6-------6---------2-------2---------6-------6---------|
D|----7---7---7---7-----0---0---0---0-----7---7---7---7-------|
A|--4-------4---------2-------2---------4-------4-------------|
E|------------------------------------------------------------|

e|------------------------------------------------------------|
B|------7-----------------------------------------------------|
G|------------------------6-----------------2-----------------|
D|----7---7-------------7---7-------------0---0---------------|
A|--5-------5---------4-------4---------2-------2-------------|
E|------------------------------------------------------------|

e|------------------------------------------------------------|
B|------------------------------------------------------------|
G|------2-------2------2--------------------------------------|
D|----2---2---2---2----2-(strum repeatedly building volume)---|
A|--0-------0-------0--0--------------------------------------|
E|------------------------------------------------------------|


[Chorus 2] (Listen for strumming pattern changes)

e|------------------------------------------------------------|
B|--7---------------------------------------------------------|
G|--7--x8--9------7------6------4------6------11------9-------|
D|--7------x--x8--x--x8--x--x8--x--x8--x--x8--x---x8--x--x8---|
A|--5------7------5------4------2------4------9-------7-------|
E|------------------------------------------------------------|

e|------------------------------------------------------------|
B|------------------------------------------------------------|
G|--7------6------7------11-----------------------------------|
D|--x--x8--x--x8--x--x8--x--x8--------------------------------|
A|--5------4------5------9------------------------------------|
E|------------------------------------------------------------|


[Chorus 1]

e|---------------------3-----2--------------------------------|
B|--7------------------3-----3--------------------------------|
G|--7-x8---------------0-----4--------------------------------|(x4)
D|--7------------------0-x8--4-x8-----------------------------|
A|--5------7--9--7--5--2-----2--------------------------------|
E|---------5--7--5--3--3-----2--------------------------------|


[Outro 1]

e|------------------5---5-------------------------------------|
B|-7---7---7---7-------------5---5----------------------------|
G|--7---7---7---7----7---7----7---7---------------------------|(x4)
D|---7---7---7---7----7---7----7---7--------------------------|
A|------------------------------------------------------------|
E|------------------------------------------------------------|


[Outro 2]

e|------------------------------------------------------------|
B|------------------------------------------------------------|
G|------------------------------------------------------------|
D|--4--2--0--7---4--2-----4-----------------------------------|
A|--2--2--2--5---2--2--2--5-----------------------------------|
E|--3------------3-----0--------------------------------------|



************************************

| h  Hammer-on
| p  Pull-off

************************************
Suggest correction
Give kudos to tab author, rate the tab!
1 2 3 4 5
comments
print report bad tab
guest
You may want to rate the tab now too:
select rating
Wanna post a correction for this tab? Suggest correction