Oops, an error
Loading. Please wait.

Choke Tab

40 views 9 this week
no commentswrite comment
1 2 3 4 5
3 more votes to show rating
add to favorites
launch autoscroll
font size
0
reset
how to read this tab
guitar tuner
Autoscroll
slow
fast
+/-
esc
set tempo
stop
Help us to improve Ultimate-Guitar.com Take our survey!
×
Author
Difficulty
Tuning
intermediate
C# G# C# F# A# D#
[Intro]
[Lead]
e|----------7-5---------------------------------------------------|----------|
B|------8---------------------------------------------------------|--7-------|
G|----0---0-------------------------------------------------------|--7-------|
D|----------------------------------------------------------------|--0-------| (x8)
A|--7-------------------------------------------------------------|----------|
E|----------------------------------------------------------------|----------|
                                                                     ^ on the 4th and 8th time

e|----------7-5---------------------------------------------------|----------|
B|------8---------------------------------------------------------|--7-------|
G|----0---0-------------------------------------------------------|--7-------|
D|----------------------------------------------------------------|--0-------| (x8)
A|--7-------------------------------------------------------------|----------|
E|----------------------------------------------------------------|----------|
                                                                     ^ on the 8th time

e|----------7-5--------------------------------------------------------------|
B|------8--------------------------------------------------------------------|
G|----0---0------------------------------------------------------------------|
D|---------------------------------------------------------------------------| (x8)
A|--7------------------------------------------------------------------------|
E|---------------------------------------------------------------------------|
                                                                     
[Outro]
e|----------7-5--------------------------------------------------------------|
B|------8-----------7-7-7-7-7-7-7-7------------------------------------------|
G|----0---0---------7-7-7-7-7-7-7-7------------------------------------------|
D|------------------0-0-0-0-0-0-0-0------------------------------------------| 
A|--7------------------------------------------------------------------------|
E|---------------------------------------------------------------------------|
             
[Rhythm] (0:10)
[Intro]
e|---------------------------------------------------------------------------|
B|---------------------------------------------------------------------------|
G|---------------------------------------------------------------------------|
D|---------------------------------------------------------------------------| 
A|-10~~~---------------------------------------------------------------------|
E|-10~~~---------------------------------------------------------------------|
    
[Verse]
(0:20)
e|---------------------------------------------------------------------------|
B|---------------------------------------------------------------------------|
G|---------------------------------------------------------------------------|
D|---------------------------------------------------------------------------|  (x4)
A|---------------------------------------------------------------------------|
E|-10-10-10-10-10-10-10-10-10-10-10-10-2-2-2-2-2-2-2-2-5-5-5-5-5-5-5-5-------|
    .  .  .  .  .  .  .  . . . . . . . . . . . . . . . . . . . . . . .

e|---------------------------------------------------------------------------|
B|---------------------------------------------------------------------------|
G|---------------------------------------------------------------------------|
D|-10-10-10-10-10-10-10-10-2-2-2-2-5-5-5-5-----------------------------------|  (x3)
A|-10-10-10-10-10-10-10-10-2-2-2-2-5-5-5-5-----------------------------------|
E|-10-10-10-10-10-10-10-10-2-2-2-2-5-5-5-5-----------------------------------|
    
[Outro]
e|---------------------------------------------------------------------------|
B|---------------------------------------------------------------------------|
G|---------------------------------------------------------------------------|
D|-10-10-10-10-10-10-10-10-2-2-2-2-5-5-5-5-5-5-5-5---------------------------|  (x1)
A|-10-10-10-10-10-10-10-10-2-2-2-2-5-5-5-5-5-5-5-5---------------------------|
E|-10-10-10-10-10-10-10-10-2-2-2-2-5-5-5-5-5-5-5-5---------------------------|
   

************************************

| ~  Vibrato
| .  Palm mute

************************************
Suggest correction
Give kudos to tab author, rate the tab!
1 2 3 4 5
comments
print report bad tab
guest
You may want to rate the tab now too:
select rating
Wanna post a correction for this tab? Suggest correction