Oops, an error
Loading. Please wait.

Heaven Sent Tab

508 views 66 this week
no commentswrite comment
1 2 3 4 5
x 4
add to favorites
launch autoscroll
font size
0
reset
how to read this tab
guitar tuner
Autoscroll
slow
fast
+/-
esc
set tempo
stop
Help us to improve Ultimate-Guitar.com Take our survey!
×
Author
Difficulty
Tuning
novice
C# G# C# F# A# D#
About this tab version
Provides video play along. All rhythm and lead guitar sections are included in this tab. Was this info helpful? Yes No
Track: Heaven Sent
Artist: Trophy Eyes
Album: Chemical Miracle (2016)
Tuning: Drop C# (C# G# C# F# A# D#)

Tabbed by: Noah Maranesi
Website: https://instagram.com/n04hz_ark

Video Playalong: https://youtu.be/GOGag1fK5C8


[Intro] (0:00)

                  x4
|-------------------|
|:-----------------:|
|--4----------------|
|------5---4--------|
|:-------------5---:|
|----5---5---5---5--|


[Verse] (0:08) (exact strumming not shown)
    
    Guitar 1: Repeat Intro
    
    "Lay your head on my shoulder..."

|---------------------------------------------------------------|
|---------------------------------------------------------------|
|---------------------------------5-5-5-5-5-5-5-5-7-7-7-7-7-7-7-|
|-5-5-5-5-5-5-5-5-2-2-2-2-2-2-2-2-5-5-5-5-5-5-5-5-7-7-7-7-7-7-7-|
|-5-5-5-5-5-5-5-5-2-2-2-2-2-2-2-2-3-3-3-3-3-3-3-3-5-5-5-5-5-5-5-|
|-5-5-5-5-5-5-5-5-2-2-2-2-2-2-2-2-------------------------------|

|---------------------------------------------------------------|
|---------------------------------------------------------------|
|---------------------------------5-5-5-5---------7-7-7-7-7-7-7-|
|-5-5-5-5-5-5-5-5-2-2-2-2-2-2-2-2-5-5-5-5-5-5-5-5-7-7-7-7-7-7-7-|
|-5-5-5-5-5-5-5-5-2-2-2-2-2-2-2-2-3-3-3-3-5-5-5-5-5-5-5-5-5-5-5-|
|-5-5-5-5-5-5-5-5-2-2-2-2-2-2-2-2---------5-5-5-5---------------|


[Post-Verse] (0:42)

    "So stay away from me..."

|---------------------------------|---------------------------------|
|---------------------------------|---------------------------------|
|---------------------------------|---------------------------------|
|---------------------------------|---------------------------------|
|-2-2-2-2-2-0-0-0-5-5-5-5-5-4-4-4-|---------------------------------|
|---------------------------------|-5-5-5-5-5-5-5-5-2-2-2-2-2-2-2-2-|

|---------------------------------|---------------------------------|
|---------------------------------|---------------------------------|
|---------------------------------|---------------------------------|
|---------------------------------|-5-5-x-x-5-5-x-x-2-2-2-2-2-2-2-2-|
|-2-2-2-2-2-0-0-0-5-5-5-5-5-4-4-4-|-5-5-x-x-5-5-x-x-2-2-2-2-2-2-2-2-|
|---------------------------------|-5-5-x-x-5-5-x-x-2-2-2-2-2-2-2-2-|


[Break] (0:58)

    "So damn smart and interesting..."

|-----------|-----------|-----------|-----------|
|:---------:|:---------:|:---------:|:---------:|
|------7----|------7----|------7----|------7----|
|----5---5--|----5---5--|----5---5--|----5---5--|
|:-7-------:|:-6-------:|:-5-------:|:-4-------:|
|-----------|-----------|-----------|-----------|

|-----------|-----------|-----------|-----------|
|:---------:|:---------:|:---------:|:---------:|
|------4----|------4----|------5----|------5----|
|----2---2--|----2---2--|----4---4--|----4---4--|
|:-3-------:|:-3-------:|:-5-------:|:-5-------:|
|-----------|-----------|-----------|-----------|

|-----------|-----------|-----------|-----------|
|:---------:|:---------:|:---------:|:---------:|
|------7----|------7----|------7----|------7----|
|----5---5--|----5---5--|----5---5--|----5---5--|
|:-7-------:|:-6-------:|:-5-------:|:-4-------:|
|-----------|-----------|-----------|-----------|

|-----------|-----------|-----------|-----------|-----------|
|:---------:|:---------:|:---------:|-----------|--------7!-|
|------4----|------4----|------5----|------5----|------5-7!-|
|----2---2--|----2---2--|----4---4--|----4---4--|----4------|
|:-3-------:|:-3-------:|:-5-------:|--5--------|--5--------|
|-----------|-----------|-----------|-----------|-----------|


[Chorus] (1:32)

    "SO STAY AWAY FROM ME!"
    
    Guitar 1

|----------------------------------|----------------------------------|
|:---------------------------------|----------------------------------|
|--7-7-7-7-7-6-6-6-7-7-7-7-7-6-6-6-|-7-7-7-7-7-6-6-6-7-7-7-7-7-9-9-9--|
|----------------------------------|----------------------------------|
|:-5-5-5-5-5-4-4-4-5-5-5-5-5-4-4-4-|-5-5-5-5-5-4-4-4-5-5-5-5-5-7-7-7--|
|----------------------------------|----------------------------------|

|----------------------------------|----------------------------------|
|----------------------------------|---------------------------------:|
|--7-7-7-7-7-6-6-6-7-7-7-7-7-6-6-6-|-7-7---9-7-7---9------------------|
|----------------------------------|-----x-------x---2-2-2-2-2-2-2-2--|
|--5-5-5-5-5-4-4-4-5-5-5-5-5-4-4-4-|-5-5-x-7-5-5-x-7-2-2-2-2-2-2-2-2-:|
|----------------------------------|-----x-------x---2-2-2-2-2-2-2-2--|

    Guitar 2

|----------------------------------|----------------------------------|
|:---------------------------------|----------------------------------|
|--4-4-4-4-4-2-2-2-7-7-7-7-7-6-6-6-|----------------------------------|
|--4-4-4-4-4-4-4-4-7-7-7-7-7-7-7-7-|-5-5-5-5-5-5-5-5-2-2-2-2-2-2-2-2--|
|:-2-2-2-2-2-0-0-0-5-5-5-5-5-4-4-4-|-5-5-5-5-5-5-5-5-2-2-2-2-2-2-2-2--|
|----------------------------------|-5-5-5-5-5-5-5-5-2-2-2-2-2-2-2-2--|

|----------------------------------|----------------------------------|
|----------------------------------|---------------------------------:|
|--4-4-4-4-4-2-2-2-7-7-7-7-7-6-6-6-|----------------------------------|
|--4-4-4-4-4-4-4-4-7-7-7-7-7-7-7-7-|-5-5-x-x-5-5-x-x-2-2-2-2-2-2-2-2--|
|--2-2-2-2-2-0-0-0-5-5-5-5-5-4-4-4-|-5-5-x-x-5-5-x-x-2-2-2-2-2-2-2-2-:|
|----------------------------------|-5-5-x-x-5-5-x-x-2-2-2-2-2-2-2-2--|


[Post-Chorus] (2:04)

    "YOU SHOULD HAVE LISTENED TO ME!"

|-------------------|-------------------|-------------------|-------------------|
|:-----------------:|:-----------------:|:-----------------:|:-----------------:|
|--4----------------|--4----------------|--4----------------|--4----------------|
|------5---4--------|------5---4--------|------5---4--------|------5---4--------|
|:-------------5---:|:-------------5---:|:-------------5---:|:-------------5---:|
|----0---0---0---0--|----5---5---5---5--|----0---0---0---0--|----5---5---5---5--|

|-------------------|-------------------|-------------------|-------------------|
|:-----------------:|:-----------------:|:-----------------:|:-----------------:|
|--4----------------|--4----------------|--4----------------|--4----------------|
|------5---4--------|------5---4--------|------5---4--------|------5---4--------|
|:-------------5---:|:-------------5---:|:-------------5---:|:-------------5---:|
|----0---0---0---0--|----5---5---5---5--|----0---0---0---0--|----5---5---5---5--|


[Chorus] (2:36)

    "SO STAY AWAY FROM ME!"
    
    Guitar 1

|----------------------------------|----------------------------------|
|:---------------------------------|----------------------------------|
|--7-7-7-7-7-6-6-6-7-7-7-7-7-6-6-6-|-7-7-7-7-7-6-6-6-7-7-7-7-7-9-9-9--|
|----------------------------------|----------------------------------|
|:-5-5-5-5-5-4-4-4-5-5-5-5-5-4-4-4-|-5-5-5-5-5-4-4-4-5-5-5-5-5-7-7-7--|
|----------------------------------|----------------------------------|

|----------------------------------|----------------------------------|
|----------------------------------|---------------------------------:|
|--7-7-7-7-7-6-6-6-7-7-7-7-7-6-6-6-|-7-7---9-7-7---9------------------|
|----------------------------------|-----x-------x---2-2-2-2-2-2-2-2--|
|--5-5-5-5-5-4-4-4-5-5-5-5-5-4-4-4-|-5-5-x-7-5-5-x-7-2-2-2-2-2-2-2-2-:|
|----------------------------------|-----x-------x---2-2-2-2-2-2-2-2--|

    Guitar 2

|----------------------------------|----------------------------------|
|:---------------------------------|----------------------------------|
|--4-4-4-4-4-2-2-2-7-7-7-7-7-6-6-6-|----------------------------------|
|--4-4-4-4-4-4-4-4-7-7-7-7-7-7-7-7-|-5-5-5-5-5-5-5-5-2-2-2-2-2-2-2-2--|
|:-2-2-2-2-2-0-0-0-5-5-5-5-5-4-4-4-|-5-5-5-5-5-5-5-5-2-2-2-2-2-2-2-2--|
|----------------------------------|-5-5-5-5-5-5-5-5-2-2-2-2-2-2-2-2--|

|----------------------------------|----------------------------------|
|----------------------------------|---------------------------------:|
|--4-4-4-4-4-2-2-2-7-7-7-7-7-6-6-6-|----------------------------------|
|--4-4-4-4-4-4-4-4-7-7-7-7-7-7-7-7-|-5-5-x-x-5-5-x-x-2-2-2-2-2-2-2-2--|
|--2-2-2-2-2-0-0-0-5-5-5-5-5-4-4-4-|-5-5-x-x-5-5-x-x-2-2-2-2-2-2-2-2-:|
|----------------------------------|-5-5-x-x-5-5-x-x-2-2-2-2-2-2-2-2--|


[Outro] (3:12)

    "So damn smart and interesting..."

|-----------|-----------|-----------|-----------|
|:---------:|:---------:|:---------:|:---------:|
|------7----|------7----|------7----|------7----|
|----5---5--|----5---5--|----5---5--|----5---5--|
|:-7-------:|:-6-------:|:-5-------:|:-4-------:|
|-----------|-----------|-----------|-----------|

|-----------|-----------|-----------|-----------|
|:---------:|:---------:|:---------:|:---------:|
|------4----|------4----|------5----|------5----|
|----2---2--|----2---2--|----4---4--|----4---4--|
|:-3-------:|:-3-------:|:-5-------:|:-5-------:|
|-----------|-----------|-----------|-----------|

|-----------------------------------------------|
|-----------------------------------------------|
|-12--------------------------------------------|
|-9---------------------------------------------|
|-10--------------------------------------------|
|-----------------------------------------------|



************************************

| x  Dead note

************************************
Suggest correction
comments
print report bad tab
guest
You may want to rate the tab now too:
select rating
Wanna post a correction for this tab? Suggest correction