Oops, an error
Loading. Please wait.

Ugly Pattern tab

358 views 1 this week
no commentswrite comment
1 2 3 4 5
2 more votes to show rating
add to favorites
×
Save as Personal and add changes to this tab that will be seen only by you. Learn more ›
×
You can save this tab as Personal to edit and correct it or add notes. All changes will be seen only by you. Learn more »
launch autoscroll
font size
0
reset
how to read this tab
guitar tuner
edit
Autoscroll
slow
fast
+/-
esc
set tempo
stop
About this tab version
No other versions, wanted to submit the tab for it. Was this info helpful? Yes No
I noticed a lack of Trophy Eyes tabs on this website, so I thought I'd learn some songs by ear and give those
who aren't as good at listening to the right notes a chance to learn some of these songs if they wish.

Instagram: @leopard_samurai

Tuning: Drop C# (C# G# C# F# A# D#, Low to High)

If you have any questions about the tab or want to suggest a improvement (I feel as though this is mostly 
correct, but who knows - could be slight things I've missed), leave a comment below or send me a message. :)


[Intro]

(Rhythm Guitar)

(0:00 - 0:17)

D#|-----------------------------------------------------------       
A#|-----------------------------------------------------------        
F#|-----------------------------------------------------------          
C#|-6-6-6-----------------------------------------------------  (x2)   
G#|-4-4-4---2/9---7--9-9-9------------------------------------        
C#|---------2/9---7--9-9-9------------------------------------         


D#|-----------------------------------------------------------
A#|-----------------------------------------------------------
F#|----------------------------------------------------------- <- On the 3rd time
C#|-6-6-6-----------------------------------------------------
G#|-4-4-4---2/9---7--9-9-9-9-9-9-9-9--------------------------
C#|---------2/9---7--9-9-9-9-9-9-9-9--------------------------

Play this twice before the verse.

(Lead Guitar)

Play the lead after the rhythm has played it's first half of the intro.

D#|-----------------------------------------------------------
A#|-----------------------------------------------------------
F#|-2-2-4-4-6-4-9-9-------------------------------------------
C#|----------------------------------------------------------- (x2)
G#|-----------------------------------------------------------
C#|-----------------------------------------------------------

D#|-----------------------------------------------------------
A#|-----------------------------------------------------------
F#|-2-2-4-4-6-4-9-9-6-6-6-6-6-6-6-6---------------------------
C#|----------------------------------------------------------- 
G#|-----------------------------------------------------------
C#|-----------------------------------------------------------


[Verse]

As far as I can make out here, both guitars play the same thing.

(0:17 - 0:39)

D#|-----------------------------------------------------------
A#|-----------------------------------------------------------
F#|-----------------------------------------------------------
C#|-2-2--2-2-2--------------2-2--2-2-2--2-2--2-2-2------------
G#|-0-0--0-0-0--2-2--2-2-2--0-0--0-0-0--0-0--0-0-0------------
C#|-------------2-2--2-2-2------------------------------------

D#|-----------------------------------------------------------
A#|-----------------------------------------------------------
F#|-----------------------------------------------------------
C#|-2-2--2-2-2------------------------------------------------
G#|-0-0--0-0-0--2-2--2-2-2-4-4--4-4-4--4b---------------------
C#|-------------2-2--2-2-2-4-4--4-4-4--4b---------------------
                                       .  (Palm-mute and tremolo pick these 2 strings while bending)
                                       PM
                                       
D#|-----------------------------------------------------------
A#|-----------------------------------------------------------
F#|-----------------------------------------------------------
C#|-2-2--2-2-2--------------2-2--2-2-2--2-2--2-2-2------------
G#|-0-0--0-0-0--2-2--2-2-2--0-0--0-0-0--0-0--0-0-0------------
C#|-------------2-2--2-2-2------------------------------------

D#|-----------------------------------------------------------
A#|-----------------------------------------------------------
F#|-----------------------------------------------------------
C#|-2-2--2-2-2------------------------------------------------
G#|-0-0--0-0-0--2-2--2-2-2-4-4--4-4-4--7b-7b--7b-7b-7b--------
C#|-------------2-2--2-2-2-4-4--4-4-4--6b-6b--6b-6b-6b--------
                                                      (This time around, don't palm-mute or tremolo pick)


D#|----------------------------------------------------------- 
A#|-----------------------------------------------------------
F#|-----------------------------------------------------------
C#|-2-2--2-2-2------------------------------------------------
G#|-0-0--0-0-0--2-2--2-2-2-4-4--4-4-4--4b-4b--4b-4b-4b--------
C#|-------------2-2--2-2-2-4-4--4-4-4--4b-4b--4b-4b-4b--------


[ Verse pt.2 - Pre-Breakdown ]

Both guitars play the same here, again.

(0:39 - 1:00)
 
D#|-----------------------------------------------------------
A#|-----------------------------------------------------------
F#|-----------------------------------------------------------
C#|-2-(x8)---------------------------------------------------- (x2)
G#|-0-------2--------4-4--5-5-5-5-5-5-5-5-5-5-5-5-5-5-5-5-----
C#|---------2-(x6)---4-4--5-5-5-5-5-5-5-5-5-5-5-5-5-5-5-5-----
                          . .   . . . .   . .   . . . . 
                          PM

D#|-----------------------------------------------------------
A#|-----------------------------------------------------------
F#|-----------------------------------------------------------
C#|---(Bass Plays Here)---------------------------------------
G#|-----------------------5-5-5-5-----------------------------
C#|-----------------------5-5-5-5-----------------------------
                          . . . .
                          PM
                          
[Breakdown]

(1:00 - 1:19)

D#|-----------------------------------------------------------
A#|-----------------------------------------------------------
F#|-----------------------------------------------------------
C#|----------------------------------------------------------- (x4)
G#|-4-2-7-6-4-2-7-6-4-5-5--5-5-5--5-5-5--5-5-5----------------
C#|-4-2-7-6-4-2-7-6-4-5-5--5-5-5--5-5-5--5-5-5----------------


[Interlude]

(1:19 - 1:38)

(Rhythm Guitar)

D#|-----------------------------------------------------------
A#|-----------------------------------------------------------          Let these notes ring until
F#|-----------------------------------------------------------           the next note is played.
C#|----------2------------------------------------------------ (x4)
G#|-2--------0------------------------------------------------         
C#|-2---------------------------------------------------------           

D#|-----------------------------------------------------------
A#|-----------------------------------------------------------
F#|-----------------------------------------------------------
C#|-2-2-2-2-2-2-2-2-------------------------------------------
G#|-0-0-0-0-0-0-0-0-------------------------------------------
C#|-----------------------------------------------------------
    . . . . . . . .

(Lead Guitar)

                                                  Play this extra bit on the 4th time only.
                                                                       v
D#|------------------------------------------------------------|---------------|
A#|------------------------------------------------------------|---------------|
F#|-----4--------1-------1-------1-----------------------------|-----1---------|
C#|---2---2----------------------------------------------------|---------------| (x4)
G#|-0----------2---2---2---2---2---2---------------------------|---2---2-------|
C#|----------2-------2-------2---------------------------------|-2-------------|


[Verse 2]

(1:19 - 2:14)

(Rhythm Guitar)

D#|-----------------------------------------------------------       
A#|-----------------------------------------------------------        
F#|-----------------------------------------------------------          
C#|-6-6-6-----------------------------------------------------  (x2)   
G#|-4-4-4---2/9---7--9-9-9------------------------------------        
C#|---------2/9---7--9-9-9------------------------------------         


D#|-----------------------------------------------------------
A#|-----------------------------------------------------------
F#|----------------------------------------------------------- <- On the 3rd time
C#|-6-6-6-----------------------------------------------------
G#|-4-4-4---2/9---7--9-9-9-9-9-9-9-9--------------------------
C#|---------2/9---7--9-9-9-9-9-9-9-9--------------------------

Repeat this until Outro

(Lead Guitar)

D#|-----------------------------------------------------------
A#|-----------------------------------------------------------
F#|-2-2-4-4-6-4-9-9-------------------------------------------
C#|----------------------------------------------------------- (x2)
G#|-----------------------------------------------------------
C#|-----------------------------------------------------------

D#|-----------------------------------------------------------
A#|-----------------------------------------------------------
F#|-2-2-4-4-6-4-9-9-6-6-6-6-6-6-6-6---------------------------
C#|----------------------------------------------------------- 
G#|-----------------------------------------------------------
C#|-----------------------------------------------------------
 
Repeat this until Outro


[Outro]

(2:14 - 2:23)

(Rhythm Guitar)

D#|-----------------------------------------------------------       
A#|-----------------------------------------------------------        
F#|-----------------------------------------------------------          
C#|-----------------------------------------------------------  Let the last note ring. 
G#|-9-9-9--7-7-7--5-------------------------------------------        
C#|-9-9-9--7-7-7--5-------------------------------------------         


(Lead Guitar)

D#|-----------------------------------------------------------
A#|-----------------------------------------------------------
F#|-2-2-2--4-4-4--6-------------------------------------------
C#|-----------------------------------------------------------  Let the last note ring.
G#|-----------------------------------------------------------
C#|-----------------------------------------------------------

************************************

| x   Dead note
| g   Grace note
| (n) Ghost note
| h   Hammer-on
| p   Pull-off
| r   Release
| >   Accented note
| t   Tapping
| b   Bend
| br  Bend release
| pb  Pre-bend
| pbr Pre-bend release
| /   Slide up
| \   Slide down
| ~   Vibrato
| s   Slap
| P   Pop
| PM  Palm mute
| TR  Trill
| N   Tremolo

************************************

            
            
Suggest correction
Creating personal tab
Creating personal tab
You can edit any tab online and save it as your Personal.

You can edit, replace or remove any tab part or add personal notes – all changes will be seen only by you.

Personal tabs can be accessed anytime from any device, even offline.
Learn more »
Give kudos to tab author, rate the tab!
1 2 3 4 5
comments
print report bad tab
guest
You may want to rate the tab now too:
select rating
Wanna post a correction for this tab? Suggest correction