Oops, an error
Loading. Please wait.

White Curtains Tab

46 views 18 this week
no commentswrite comment
1 2 3 4 5
3 more votes to show rating
add to favorites
launch autoscroll
font size
0
reset
how to read this tab
guitar tuner
Autoscroll
slow
fast
+/-
esc
set tempo
stop
Help us to improve Ultimate-Guitar.com Take our survey!
×
Author
Difficulty
Tuning
intermediate
C# G# C# F# A# D#
About this tab version
The only tab - Written as a preliminary/full completion. Was this info helpful? Yes No
[Intro]
e|---------------------------------------------------------------------------|
B|-12-12--13---12-12-12-13---------------------------------------------------|
G|-11-11-12~~--11-11-11-12---------------------------------------------------|
D|-9--9--10~~--9--9--9--10---------------------------------------------------| (x2)
A|-9--9--10~~--9--9--9--10---------------------------------------------------|
E|-9--9--10~~--9--9--9--10---------------------------------------------------|

[Verse]
e|---------------------------------------------------------------------------|
B|---------------------------------------------------------------------------|
G|---------------------------------------------------------------------------|
D|---------------------------------------------------------------------------| (x2)
A|-10-10-10-9-12-12-12-14-10-10-10-9-12-14-12-12-----------------------------| 
E|-10-10-10-9-12-12-12-14-10-10-10-9-12-14-12-12-----------------------------|

e|---------------------------------------------------------------------------|
B|--------------------------------------------8-8----------------------------|
G|--------------------------------------------7-7----------------------------|
D|--------------------------------------------7-7----------------------------| (x3)
A|--2-2-2-2-2-2-5-5-5-5-5-5-7-7-7-7-7-7-7-7-7--------------------------------|
E|--2-2-2-2-2-2-5-5-5-5-5-5-7-7-7-7-7-7-7-7-7--------------------------------|
      . . .       . . .       . . . . .

On the 4th Time:
e|---------------------------------------------------------------------------|
B|--------------------------------------------8-8---13-----------------------|
G|--------------------------------------------7-7---12-----------------------|
D|--------------------------------------------7-7---10-----------------------| (x1)
A|--2-2-2-2-2-2-5-5-5-5-5-5-7-7-7-7-7-7-7-7-7-------10-----------------------|
E|--2-2-2-2-2-2-5-5-5-5-5-5-7-7-7-7-7-7-7-7-7-------10-----------------------|
      . . .       . . .       . . . . .

e|---------------------------------------------------------------------------|
B|---------------------------------------------------------------------------|
G|---------------------------------------------------------------------------|
D|---------------------------------------------------------------------------| (x2)
A|-10-10-10-9-12-12-12-14-10-10-10-9-14-12-12-12-----------------------------| 
E|-10-10-10-9-12-12-12-14-10-10-10-9-14-12-12-12-----------------------------|

e|---------------------------------------------------------------------------|
B|---------------------------------------------------------------------------|
G|-----12-11-12-11---14-16-14------12-11-12-11----16-14-16-------------------|
D|--12------------14-----------12-------------14-----------------------------| (x2)
A|---------------------------------------------------------------------------|
E|---------------------------------------------------------------------------|

[Interlude -"Choke"]
[Lead]
e|----------7-5---------------------------------------------------|----------|
B|------8---------------------------------------------------------|--7-------|
G|----0---0-------------------------------------------------------|--7-------|
D|----------------------------------------------------------------|--0-------| (x4)
A|--7-------------------------------------------------------------|----------|
E|----------------------------------------------------------------|----------|
                                                                     ^ on the 4th time

e|----------7-5---------------------------------------------------|----------|
B|------8---------------------------------------------------------|--7-------|
G|----0---0-------------------------------------------------------|--7-------|
D|----------------------------------------------------------------|--0-------| (x12)
A|--7-------------------------------------------------------------|----------|
E|----------------------------------------------------------------|----------|
                                                                     ^ on the 8th time

[Rhythm]
e|---------------------------------------------------------------------------|
B|---------------------------------------------------------------------------|
G|---------------------------------------------------------------------------|
D|---------------------------------------------------------------------------|  (x4)
A|---------------------------------------------------------------------------|
E|-10-10-10-10-10-10-10-10-10-10-10-10-2-2-2-2-2-2-5-5-5-5-5-5---------------|
    .  .  .  .  .  .  .  . . . . . . . . . . . . . . . . . . .

[Both (@1:41)]
e|---------------------------------------------------------------------------|
B|---------------------------------------------------------------------------|
G|---------------------------------------------------------------------------|
D|---------------------------------------------------------------------------|
A|--2~---5~---9~---10~-------------------------------------------------------|
E|--2~---5~---9~---10~-------------------------------------------------------|

e|---------------------------------------------------------------------------|
B|---------------------------------------------------------------------------|
G|--4-----------------11-------12--------------------------------------------|
D|--2--------5--------9--------10--------------------------------------------|
A|--2--------5--------9--------10--------------------------------------------|
E|--2-(x8)---5-(x8)---9-(x8)---10-(x10)--------------------------------------|

[Verse]
e|---------------------------------------------------------------------------|
B|---------------------------------------------------------------------------|
G|---------------------------------------------------------------------------|
D|---------------------------------------------------------------------------| (x2)
A|-10-10-10-9-12-12-12-14-10-10-10-9-14-12-12-12-----------------------------| 
E|-10-10-10-9-12-12-12-14-10-10-10-9-14-12-12-12-----------------------------|

e|---------------------------------------------------------------------------|
B|---------------------------------------------------------------------------|
G|-----12-11-12-11---14-16-14------12-11-12-11----16-14-16-------------------|
D|--12------------14-----------12-------------14-----------------------------| (x2)
A|---------------------------------------------------------------------------|
E|---------------------------------------------------------------------------|

e|---------------------------------------------------------------------------|
B|--------------------------------------------8-8----------------------------|
G|--------------------------------------------7-7----------------------------|
D|--------------------------------------------7-7----------------------------| (x3)
A|--2-2-2-2-2-2-5-5-5-5-5-5-7-7-7-7-7-7-7-7-7--------------------------------|
E|--2-2-2-2-2-2-5-5-5-5-5-5-7-7-7-7-7-7-7-7-7--------------------------------|
      . . .       . . .       . . . . .

On the 4th Time: [Outro]
e|---------------------------------------------------------------------------|
B|----------------------------8----------------------------------------------|
G|----------------------------7----------------------------------------------|
D|----------------------------0----------------------------------------------| (x1)
A|----------------------------5----------------------------------------------|
E|-0h2-2-2-2-2-2-2-2-0h2-2-2-------------------------------------------------|
       .   .     .       .  

e|---------------------------------------------------------------------------|
B|-----------------------------8---------------------------------------------|
G|-----------------------------7---------------------------------------------|
D|-----------------------------0---------------------------------------------| (x1)
A|-----------------------------5--3-2----------------------------------------|
E|-2-0h2-2-2-2-2-2-2-2-0h2-2-2-----------------------------------------------|
         .   .     .       .  

e|---------------------------------------------------------------------------|
B|----------------------------8----------------------------------------------|
G|----------------------------7----------------------------------------------|
D|----------------------------0----------------------------------------------| (x2)
A|----------------------------5--3-2-----------------------------------------|
E|--0h2-2-2-2-2-2-2-2-0h2-2-2------------------------------------------------|
        .   .     .       .  

e|---------------------------------------------------------------------------|
B|----------------------------8----------------------------------------------|
G|----------------------------7----------------------------------------------|
D|----------------------------0----------------------------------------------| (x1)
A|----------------------------5----------------------------------------------|
E|-0h2-2-2-2-2-2-2-2-0h2-2-2-------------------------------------------------|
       .   .     .       .

************************************

| ~  Vibrato
| .  Palm mute
| h  Hammer-on

************************************
Suggest correction
Give kudos to tab author, rate the tab!
1 2 3 4 5
comments
print report bad tab
guest
You may want to rate the tab now too:
select rating
Wanna post a correction for this tab? Suggest correction