Oops, an error
Loading. Please wait.

Marta Tab

21 views 1 this week
no commentswrite comment
1 2 3 4 5
3 more votes to show rating
add to favorites
launch autoscroll
font size
0
reset
how to read this tab
guitar tuner
Autoscroll
slow
fast
+/-
esc
set tempo
stop
Help us to improve Ultimate-Guitar.com Take our survey!
×
LA                RE
Sin tu amor yo no vivo
      MI             LA
mi amor por ti me delata
                       RE
si aguanto tu olor a chivo
     MI             LA
aguanta mi olor a pata


Coro
LA                   MI
Marta, soy el numero uno
                           LA
Marta, cuando puedas te vacuno (bis)


Instrumental  LA-RE-MI-LA X 2

LA                    RE 
Hace unos dias me acuerdo 
       MI              LA
en el bar estuvimos Marta
                        RE
vi que llevabas de recuerdo
           MI                 LA
en los dientes un pedazo de tarta

Coro

                                
e|---------------------------|------------------------|
B|-----------2--------2-3----|------2--5--2-3-----2--| 
G|---2---4------2--4---------|--2-4------------4------|
D|---------------------------|------------------------|
A|---------------------------|------------------------|
E|---------------------------|------------------------|

                   X 2

e|---------------------------|------------------------|
B|--4~5--5--5--5--7---5-7----|--2~3-3-3-3--5--3--5----|
G|------------------------4--|----------------------6-|
D|---------------------------|------------------------|
A|---------------------------|------------------------|
E|---------------------------|------------------------|

e|---------------------------|------------------------|
B|---4~5--5--5-5---7---5--7--|---4~5--5--5-3-2--------|
G|-------------------------4-|-----------------4---2--|
D|---------------------------|------------------------|
A|---------------------------|------------------------|
E|---------------------------|------------------------|


LA                      RE
Cuando fuimos a la fruteria
      MI          LA
te comi los pomelitos 
                     RE
hoy vamos a la rostiseria 
        MI         LA
asi te como el pavito

Coro

LA-RE-MI-LA X2
LA                   RE
Se que sos una chiquita
           MI            LA
que le gustan los juguetitos
LA             RE
yo te digo Martita
         MI             LA
entretenete con mi muñequito

Coro

LA-RE-MI-LA X2
Suggest correction
Give kudos to tab author, rate the tab!
1 2 3 4 5
comments
print report bad tab
guest
You may want to rate the tab now too:
select rating
Wanna post a correction for this tab? Suggest correction