Oops, an error
Loading. Please wait.

Memorys Garden Tab

1,913 views 1 this week
no commentswrite comment
1 2 3 4 5
please rate
add to favorites
launch autoscroll
font size
0
reset
how to read this tab
guitar tuner
Autoscroll
slow
fast
+/-
esc
set tempo
stop
Help us to improve Ultimate-Guitar.com Take our survey!
×
Contributor
Binbags 5,672
Band:  Trouble
Album: Manic Frustration
Song:  Memory's Garden

Copyright (c)  (American Recordings) (1992)
Version 1.0 - (30/03/05)



.  - palm mute           /  - slide up to
\  - slide down to       ~  - vibrato
h  - hammer on           b  - Bend
p  - pull off            Suffixes for bend
t  - tap                 f  - full bend    h - half bend
ph - pinched harmonic    q  - quarter bend t - tap bend
*  - see comment         ^  - Hold bend    r release bend
x  - Stuccatto           ~  - vibrato bend
,  - slight palm mute    () - ghost note, sustained note
"  - tremolo note        <> - Trill

Tunning Eb Ab Db Gb Bb Eb
 


 Verse

 Clean guitar(Let notes ring out)

E------0---------0---------0---------0--|
B------0---------0---------0---------0--|
G-----1-----------------------------1---|
D---0-----------2---------2-------------|
A-------------4---------3---------2-----|
E-0---------0---------0---------0-------|

E------0---------0---------0----0-------|
B------0---------0---------0----0-------|
G-----1-------------------------1-------|
D---0-----------2---------2-----2-------|
A-------------4---------3-------2-------|
E-0---------0---------0---------0-------|

    ~~~
E-------------------------------------------------|
B-------------------------------------------------|
G-------------------------------------------------|
D-------------------------------------------------|
A-2----5/7--7-77-7-77-7-77-x-5/7--7-77-7-77-7-77\-|
E-0-3--3/5--5-55-5-55-5-55-x-3/5--5-55-5-55-5-55\-|

  Guitar 1
      ~~~     ~~~   ~~~    ~~~
E[-------------------------------|
B[-------------------------------|
G[-------------------------------|
D[-----7------6------5------4-\--|
A[-2-2----2-2----2-2----2-2------|
E[-0-0----0-0----0-0----0-0------|
 [
 [Guitar 2                    ~~~
E[-------------------------------|
B[-------------------------------|
G[-------------------------------|
D[-------------------------------|
A[-2-2----2-2----2-2----2-2-2----|
E[-0-0----0-0----0-0----0-0-0-3--|

    
E--------------------------------------------|
B--------------------------------------------|
G--------------------------------------------|
D--------------------------------------------|
A-5/7--7-77-7-77-7-77-x-5/7--7-77-7-77-7-77\-|
E-3/5--5-55-5-55-5-55-x-3/5--5-55-5-55-5-55\-|

 Bridge

  Guitar 1
                             Pick Scrape       
E[----------------------------------|
B[----------------------------------|
G[-----4-------4-------4--------\---|
D[---4---4---4---4---4---4---4-\-\--|
A[-2-------0--------------------\---|
E[-----------------3-------2--------|
 [Guitar 2
E[----------------------------------|
B[----------------------------------|
G[----------------------------------|
D[-4-------2------------------------|
A[-2-------0-------5-------4--------|
E[-----------------3-------2--------|

 Chorus
 Both guitars
E-------------------------------------|
B-------------------------------------|
G-------------------------------------|
D-------------------------------------|
A-2-2-x--5-5-x--7-7-x--------5--------|
E-0-0-x--3-3-x--5-5-x--5-6-7---5p0-3--|

  Guitar 1

E[-------------------------------------|
B[-------------------------------------|
G[-------------------------------------|
D[----------------------5-----4--------|
A[-2-2-x--5-5-x--7-7-x--3-----2--------|
E[-0-0-x--3-3-x--5-5-x-----------------|
 [
 [Guitar 2
 [                      ~~~~~~~~~~~~~
E[-------------------------------------|
B[-------------------------------------|
G[----------------------9-----7--------|
D[-------------------------------------|
A[-2-2-x--5-5-x--7-7-x-\---------------|
E[-0-0-x--3-3-x--5-5-x-\---------------|

 Both guitars
E-------------------------------------|
B-------------------------------------|
G-------------------------------------|
D-------------------------------------|
A-2-2-x--5-5-x--7-7-x--------5--------|
E-0-0-x--3-3-x--5-5-x--5-6-7---5p0-3--|

  Guitar 1

E[-------------------------------------|
B[-------------------------------------|
G[-------------------------------------|
D[--------------------5--(5)---5----4--|
A[-2-2-x--5-5-x--7-7--3--(3)---3----2--|
E[-0-0-x--3-3-x--5-5-------------------|
 [
 [Guitar 2
 [
E[-------------------------------------|
B[-------------------------------------|
G[-------------------------------------|
D[--------------------5--(5)-\---------|
A[-2-2-x--5-5-x--7-7--3--(3)-\/3----2--|
E[-0-0-x--3-3-x--5-5-------------------|
 [
 [Guitar 3
E[-------------------------------------|
B[-------------------------------------|
G[-----------------------------11br-11-|
D[-------------------------------------|
A[-------------------------------------|
E[-------------------------------------|
 [
 [Guitar 4
E[-----------------------------14br-14-|
B[-------------------------------------|
G[-------------------------------------|
D[-------------------------------------|
A[-------------------------------------|
E[-------------------------------------|

 

 Clean guitar(Let notes ring out)
  Guitar 1
E[------0---------0---------0---------0------|
B[------0---------0---------0---------0------|
G[-----1-----------------------------1-------|
D[---0-----------2---------2-----------------|
A[-------------4---------3---------2-----2---|
E[-0---------0---------0---------0-------0-3-|
 [
 [Clean Guitar 2
E[-------------------------------------------|
B[--------0---------0--------0---------------|
G[--------------------2--------2-------------|
D[-------------------------------------------|
A[-------------------------------------------|
E[-------------------------------------------|
 [Guitar 3(Distorted)
E[-------------------------------------------|
B[-------------------------------------------|
G[-------------------------------------------|
D[-------------------------------------------|
A[---------------------------------------2---|
E[---------------------------------------0-3-|

 
  Guitar 1
E[------0---------0---------0----0---0--|
B[------0---------0---------0----0---0--|
G[-----1-------------------------1---1--|
D[---0-----------2---------2-----2---2--|
A[-------------4---------3-------2---2--|
E[-0---------0---------0---------0---0--|
 [
 [Clean Guitar 2
E[--------------------------------------|
B[--------0---------0--------0----------|
G[--------------------2--------2--------|
D[--------------------------------------|
A[--------------------------------------|
E[--------------------------------------|

 
 Additional guitars
 E E     E E    E E    E E
      ~~~     ~~~   ~~~    ~~~
E-------------------------------|
B-----15-----14-----13-----12\--|
G-------------------------------|
D-------------------------------|
A-------------------------------|
E-------------------------------|

 Rpt Bridge
 Rpt Chorus
 
 Interlude

  Guitar 1
E[-------------------------------------------------------------------|
B[-------------------------------------------------------------------|
G[-------------------------------------------------------------------|
D[-5--------------7--------------5----5----5----7----7----7----7-----|
A[-3--------------5--------------3----3----3----5----5----5----5-----|
E[-------------------------------------------------------------------|
 [Guitar 3
E[-------------------------------------------------------------------|
B[-------------------------------------------------------------------|
G[-------------------------------------------------------------------|
D[-------------------------------------------------------------------|
A[-7----7--5--7--/9----9--10--12-7----7--5--7--/9----9--10--12-------|
E[-------------------------------------------------------------------|
 [Guitar 3
E[-------------------------------------------------------------------|
B[-------------------------------------------------------------------|
G[---------------------11-12--14----------------------------9--------|
D[-------------------------------5----5--4--5--/7----9--12-----------|
A[-------------------------------------------------------------------|
E[-------------------------------------------------------------------|

  Guitar 1
E[--------------------------------|
B[--------------------------------|
G[--------------------------------|
D[-5----5----5----7---7---5---7---|
A[-3----3----3----5---5---3---5---|
E[--------------------------------|
 [Guitar 2
E[--------------------------------|
B[--------------------------------|
G[--------------------------------|
D[--------------------------------|
A[-7----7--5--7--/9----9--7---9---|
E[--------------------------------|
 [Guitar 3
E[--------------------------------|
B[--------------------------------|
G[--------------------------------|
D[-5----5--4--5--/7----7--5---7---|
A[--------------------------------|
E[--------------------------------|
 [Guitar 4
E[--------------------------------|
B[--------------------------------|
G[-12---12-11-12-/14---14-12--14--|
D[--------------------------------|
A[--------------------------------|
E[--------------------------------|

 Backing for guitar solo is Chorus 

  Guitar 1
E[--------------------------------0-------0-------0------0-----------|
B[------------------------------0---0---0---0---0---0--0---0---------|
G[----------------------------0--------------------------------------|
D[-5--------7--------------------------------------------------------|
A[-3--------5----------------7--------5-------3-------2--------------|
E[---------------------------0---------------------------------------|
 [Guitar 2
E[-------------------------------------------------------------------|
B[-------------------------------------------------------------------|
G[-5--7--9--11--11br-11--7--9---------11------12------14b------------|
D[-------------------------------------------------------------------|
A[-------------------------------------------------------------------|
E[-------------------------------------------------------------------|
 [Guitar 3
E[--------------------------15--------14------12-10-12-14-15-17-19-19|
B[-------------------------------------------------------------------|
G[-------------------------------------------------------------------|
D[-------------------------------------------------------------------|
A[-------------------------------------------------------------------|
E[-------------------------------------------------------------------|

  Clean guitar(Let notes ring out)
  Guitar 1
E[------0---------0---------0---------0----------|
B[------0---------0---------0---------0----------|
G[-----1-----------------------------1-----------|
D[---0-----------2---------2---------------------|
A[-------------4---------3---------2-----7p5-----|
E[-0---------0---------0---------0-----------7\3-|
 [
 [Clean Guitar 2
E[-----------------------------------------------|
B[--------0---------0--------0-------------------|
G[--------------------2--------2-----------------|
D[-----------------------------------------------|
A[-----------------------------------------------|
E[-----------------------------------------------|
 [Guitar 3(Distorted)
E[-----------------------------------------------|
B[-----------------------------------------------|
G[-----------------------------------------------|
D[-----------------------------------------------|
A[---------------------------------------7p5-----|
E[-------------------------------------------7\3-|

 Rpt 2nd half of Verse
  with additional middle riff below.
 

  Guitar 1
      ~~~     ~~~   ~~~    ~~~
E[-------------------------------|
B[-----13b----12b----11b----10br-|
G[-------------------------------|
D[-------------------------------|
A[-2-2----2-2----2-2----2-2------|
E[-0-0----0-0----0-0----0-0------|
 [Guitar 2
 [     ~~~     ~~~   ~~~    ~~~
E[-------------------------------|
B[-----10b----9b-----8b-----7br--|
G[-------------------------------|
D[-------------------------------|
A[-2-2----2-2----2-2----2-2------|
E[-0-0----0-0----0-0----0-0------|

 Rpt Bridge
 Rpt Chorus 2 X

 Outro

  Guitar 1
                     ~~~ ~~
E[--------------------------------|
B[--------------------------------|
G[--------------------------------|
D[-5--5--5--5--7--7---------------|
A[-3--3--3--3--5--5---3--2--2--2--|
E[--------------------------0--0--|
 [
 [Guitar 2
E[-12--14--15--17-17br17-14-15-15-|
B[--------------------------------|
G[--------------------------------|
D[--------------------------------|
A[--------------------------------|
E[--------------------------------|
 [
 [Guitar 3
E[-------------14-14br14-11-12-12-|
B[-13--15--17---------------------|
G[--------------------------------|
D[--------------------------------|
A[--------------------------------|
E[--------------------------------|



END
comments
We did not receive enough feedback on this tab! Please rate:
print report bad tab
1 2 3 4 5
I want to post or [tab]
guest
You may want to rate the tab now too:
select rating
Please do not post tabs as comments. Select "correction" instead!