Oops, an error
Loading. Please wait.

Reina De Reinas Tab

53 views 1 this week
no commentswrite comment
1 2 3 4 5
3 more votes to show rating
add to favorites
launch autoscroll
font size
0
reset
how to read this tab
guitar tuner
×
Best way to learn
"Reina De Reinas"
Autoscroll
slow
fast
+/-
esc
set tempo
stop
Intro:
               Dm             Am              Em             Am
e|0-1-0-----0-------0----------------------------------------------|
b|------3-2---2---2---2-1-0-2-1---1-2-1-0---1-0---0-1-0-----0------|
g|----------------------------------------2-------------2-1---2----|
D|-----------------------------------------------------------------|
A|-----------------------------------------------------------------|
E|-----------------------------------------------------------------|

               Dm             Am              Em             Am
e|0-1-0-----0-------0--------------------------------------------5-|
b|------3-2---2---2---2-1-0-2-1---1-2-1-0---1-0---0-1-0-------1--5-|
g|----------------------------------------2-------------2-1-2----5-|
D|-----------------------------------------------------------------|
A|-----------------------------------------------------------------|
E|-----------------------------------------------------------------|

LAm       MI7               LAm
Reina de reinas llego a tu reino
          SOL7           DO
donde tu cielo todo es azul,
            MI7          LAm
con los fulgores de tu mirada
 FA       MI7           LAm
hasta la noche se torna clara.

               MI7
Es la grata visión (de mi corazón)
               LAm
que me hace vivir (y me hace feliz)
           SOL7             DO
y no olvidaré lleno de ilusión.


LAm       MI7               LAm
Reina de reinas llego a tu reino
          SOL7           DO
donde tu cielo todo es azul,
            MI7          LAm
con los fulgores de tu mirada
 FA       MI7           LAm
hasta la noche se torna clara.

               MI7
Es la grata visión (de mi corazón)
               LAm
que me hace vivir (y me hace feliz)
           SOL7             DO
y no olvidaré lleno de ilusión.


          MI7              LAm
Reina de reinas, cuando tu pasas
FA         MI7              LAm
todas las flores dan su fragancia,
          MI7              LAm
Reina de reinas, cuando tu pasas
FA         MI7                  LAm MI7    LAm
todas las flores dan su? fragancia - a - a - a.

               Dm             Am              Em             Am
e|0-1-0-----0-------0----------------------------------------------|
b|------3-2---2---2---2-1-0-2-1---1-2-1-0---1-0---0-1-0-----0------|
g|----------------------------------------2-------------2-1---2----|
D|-----------------------------------------------------------------|
A|-----------------------------------------------------------------|
E|-----------------------------------------------------------------|

               Dm             Am              Em             Am
e|0-1-0-----0-------0--------------------------------------------5-|
b|------3-2---2---2---2-1-0-2-1---1-2-1-0---1-0---0-1-0-------1--5-|
g|----------------------------------------2-------------2-1-2----5-|
D|-----------------------------------------------------------------|
A|-----------------------------------------------------------------|
E|-----------------------------------------------------------------|
Suggest correction
Give kudos to tab author, rate the tab!
1 2 3 4 5
comments
print report bad tab
guest
You may want to rate the tab now too:
select rating
Wanna post a correction for this tab? Suggest correction