Oops, an error
Loading. Please wait.

I Gotta Go My Own Way Tab

3,779 views 1 this week
2 commentsread comments
1 2 3 4 5
accurate
x 3
add to favorites
launch autoscroll
font size
0
reset
how to read this tab
guitar tuner
Tab Pro tools
  • play this tab
  • loop segment
  • change instrument
  • show fretboard
  • metronome
×
Best way to learn
"I Gotta Go My Own Way"
Autoscroll
slow
fast
+/-
esc
set tempo
stop
Contributor
Capo
2nd fret
Hey I love this song sooo much i wanted to learn the intro to it
and there was no tabs for it soooo...
I decided to make it up myself it might not be right but it sounds right to me ^^

By the way if it doesnt sound right to you guys then
it wouldn't suprise me considering this is my second tab lmao


Capo on 2nd fret

Intro

E------------------------------------------------------------------|
B----------3------------3-----------------3-------------3----------|
G------------0------------0----------------0--------------0--------|
D-------0-------------0---------0------0--------------0------------|
A---0h2-----------2h3---------3---3p2-----------2p0----------------|
E------------------------------------------------------------------|


E---------------------------------------------------------------------------------|
B-------------------3--------------3----------------------------3-----3-----------|
G---------------------0--------------0-----------------------0--------2-----------|
D----0-----------0----------------0-----------0-0-------0-------------0-----------|
A--0---0-----0h2--------------2h3--------------3----------------------------------|
E---------------------------------------------------------------------------------|
comments
We did not receive enough feedback on this tab! Please rate:
print report bad tab
1 2 3 4 5
2 comments total.
0 reply
aznguitarist123 wrote on October 3 2007, 06:25 pm

it's a lil off
but good try 3 stars

0 reply
casa_punkista wrote on October 13 2007, 11:54 am

correction in gotta go my own way tabs intro:

i know this is not 100% correct but i think this sounds better... give it a try..

e---------0--------------0----------------0---------------0-------
b--------------------------------------------------------------------
g-------2---2---------2---2-----------2----2----------2---2-----
d--------------------------------------------------------------------
a-2h4------4----4h5-----------5p4-------4----4p2------2-----
e--------------------------------------------------------------------

E-----------0--------------------0------------------0--0---0---0----
b-------------------------------------------------------------0--0----
g--------2-----2-------------2--------2---2-------2--2-------------
d----------------------------------------------------2-------2--------
a--2h4--------4------4h5---------5--------------0-----------------
e------------------------------------------------------------4---------

thats it and feel free 2 give suggestions:
mail me at wino_lopez@yahoo.com.sg or wino.lopez@yahoo.com

I want to post or [tab]
guest
You may want to rate the tab now too:
select rating
Please do not post tabs as comments. Select "correction" instead!