Oops, an error
Loading. Please wait.

Akoy Sayo At Ikay Akin Lamang Tab

version 1
version 1

Intro

78,669 views 87 this week
5 commentsread comments
1 2 3 4 5
accurate
x 10
add to favorites
launch autoscroll
font size
0
reset
how to read this tab
guitar tuner
Tab Pro tools
  • play this tab
  • loop segment
  • change instrument
  • show fretboard
  • metronome
×
Best way to learn
"Akoy Sayo At Ikay Akin Lamang"
Autoscroll
slow
fast
+/-
esc
set tempo
stop
Contributor
Akoy sayo at ikay akin lamang
by Truefaith

100% sure sure sure

Standard tuning

e ----------------|-----2-----1---|
B ----3--3--5-----|----3-3--------|
G----1------------|---2---2-------| 2 times!
D---3-------------|--0-----0--0---|
A -0-----2--4-----|---------------|
E ----------------|---------------|

^^, lagi yang tinutugtog sa rum namen,kaya ninakaw ko sa kanila yung intro,
hehe, c Ivan Garcia nga pla nag2ro nito sken, gehgeh
comments
print report bad tab
5 comments total. Showing first comments.
0 reply
tabhunter123 wrote on May 10 2009, 11:32 am

nice nice nice intro, iaxe original na kumanta niyan dbA?

0 reply
kl4zik_guit4r wrote on November 7 2010, 04:31 am

mali nmn un intro eh..hahaha

0 reply
romeolovejuliet wrote on July 9 2011, 04:08 am

e ----------------|-----2-----1---|
B ----3--3--5-----|----3-3--------|
G----1------------|---2---2-------| 2 times!
D---3-------------|--0-----0--0---|
A -0-----2--4-----|---------------|
E ----------------|---------------|

What's this for po?
Beginner e.
Help naman.
Thanks.

I want to post or [tab]
guest
You may want to rate the tab now too:
select rating
Please do not post tabs as comments. Select "correction" instead!