Oops, an error
Loading. Please wait.

Kung Ok Lang Sayo tab

version 2
version 2

Whole song

Interactive

9,045 views 3 this week
1 commentread comment
1 2 3 4 5
1 last vote to show rating
add to favorites
×
Save as Personal and add changes to this tab that will be seen only by you. Learn more ›
×
You can save this tab as Personal to edit and correct it or add notes. All changes will be seen only by you. Learn more »
launch autoscroll
font size
0
reset
how to read this tab
guitar tuner
edit
Autoscroll
slow
fast
+/-
esc
set tempo
stop
Author
Difficulty
Tabbed by: Giancarlo "Mr G"  Arcilla, Francis Navos "Pusa"


Mr. G's notes:
Done bye ear so... yeah... uh special thanks kay
Francis Louie Anthony  Navos a.k.a PUSA sa
pangungulit na tapusin ko na, saka sa corrections
saka dagdag. Wala ata sa timing ng record
kaya pakinggan nyo na lang. Palitan nyo na rin sa trip
nyong fingering yung ibang parts, kung gs2 nyong n.h
imbes na a.h, etc. :  )

Francis' notes:
Actually matagal ng na tab ito, 3 or 4 years ago na ata, tamad lng kami tlagang mag upload
haha, Hope you enjoy!!!

Dedicated nga pla ito ke Kathlyn M. Canlapan, I love you Kat, para sayo tong kantang 
take care always and God bless!!! Kumusta rin sa mga taga AUF (Angeles University 
HAU (Holy Angel University) saka ung alma mater namin HFA (Holy Family Academy)

*O yeah, nag upload din ako ng GP4 (guitar pro) format file, mas ok un ka c makukuha nyo 
timing

Any comments or suggestion email nyo na lng ako sa nagz06@yahoo.com


                         Kung OK Lang Sa'Yo


                                                                      True Faith
Track 1

        Intro
        NH     NH     NH                   SH     NH      NH
        E.     E.     Q.     Q       E.    E.     Q       Q.
E||-------------------0-----------|--------0---<>12--------------|
B||------------0---<>12-----------|------<>0------9----<>12------|
G||-------------------------------|------------------------------|
D||-------------------9-----------|--6---------------------------|
A||---------<>12------------------|--0---------------------------|
E||--<>12-------------------------|------------------------------|


     NH     NH     NH                        NH
     E.     E.     Q.     Q       E.  E.     H        E
-------------------0-----------|------0---<>12-----------|
------------0---<>12-----------|------0------9-----------|
-------------------------------|-------------------------|
-------------------9-----------|--6----------------------|
---------<>12------------------|--0----------------------|
--<>12-------------------------|-------------------------|


                                                                 |--3--|
  Q     E  Q    Q    E     E.  E.  Q.      Q       Q     E  Q    S  S  S E  E
------------------------|-----------------------|------------------------------|
------------------------|----------5~-----------|------------------------------|
-------/4--2----1-------|--1---2---4------------|-------/4--2----1h-2p-1----4--|
-------/4--2---------2--|-----------------------|-------/4--2------------2-----|
------------------------|--0--------------------|------------------------------|
--0---------------------|-----------------------|--0---------------------------|


                         verse1
                                >
  E.  E.  H        E     E.     S E  Q.      E   E     E.  E.  Q    E  E  E
----------0-----------|---------------------(0)-----|------0-----------0-----|
------0---0-----------|---------------------(0)-----|----------0-------------|
------2---2-----------|---------2----1--------------|--2-------2-------------|
------2---2-----------|---------2----2------(2)-----|--2-------2----2--------|
--0-------------------|-----------------------------|--0------------------0--|
----------------------|--0-----------0--------------|------------------------|


                                 T
  E.  E.  S  S  Q    Q       E.  E.  Q.     E  E     E.  E.  Q    E  S S E
------0-------------------|------x---7------------|------4------------------|
---------------------0----|--5---x---5------------|------5---5---------5----|
--1-------1h-2p-1---------|--6---x---6---------4--|------6---6-------4---4--|
--2------------------2----|--6---x----------6-----|----------6----6---------|
--------------------------|--0---x---0------------|--0-------0--------------|
--0-------0---------------|------x----------------|-------------------------|


                                                 |--3--|
  Q    Q    Q    E  E     S  E  E.  T  T  Q    S S  S  S E
-----------------------|--------5---------------------------|
--4---------4----4-----|--5h-7--7---5h-7p-5-----------------|
--4---------4----4-----|-------------------------6h-7p-6----|
--6----6----4----------|-----------------------7---------7--|
------------6----------|--5---------------------------------|
--4-----------------4--|------------------------------------|


                               verse 2
  E.  S E  Q     E    Q        Q        E  Q    E  E  E
-----------7----------------|----------------------------|
--7---7---------------------|-------------------------0--|
--9---9----9---------(9)----|----------/4--2----1--------|
----------------(9)---------|----------/4--2-------2-----|
----------------------------|----------------------------|
--7--------7----------------|--0-------------------------|


                                              T                       T
  E.  E.  H        E     Q     E  Q    E  S S E     E.   E.   Q    E  S  E.
----------0-----------|-----------------------x--|------(0)-----------x-------|
----------0-----------|-------------------0---x--|--0---------0-------x-(0)---|
----------------------|-------/4--2----1------x--|--2-----------------x-------|
------2---------------|-------/4--2-----------x--|--2-----------------x--2----|
--0-------------------|-----------------------x--|--0--------------0--x-------|
----------------------|--0------------------0-x--|--------------------x-------|


                   3  3  3  3
  E.  S E  Q    E  S. S. S. S.    Q    S E.  Q    E.  S
------4------------------------|------------------------|
------5----5----------5--------|------------------------|
------6----6-------4-----4-----|---------4--------------|
-----------6----6-----------6--|-------4----------6-----|
--0--------0-------------------|-------------4----------|
-------------------------------|--4-------------------7-|


         |--3-|
  E.  E  S S  S  E   S  S  S E  E     E.  E.  E.  S E  E   E
--5---5----------------------------|---------------------------|
---------5-5h-7p-5--------------5--|------7-------7------------|
---------6-6------------6h-7-6-----|--9-------9----------------|
--------------------(7)------------|--9-------9--------9-------|
--5--------------------------------|-------------------9-------|
-----------------------------------|--7-------------7-----(7)--|


                              1st Chorus
          >          T
  E.  E.  E.  S  E   S E.     E.         S E  Q    S E.  S S
----------0-----(0)--x-----|-------------4---------4---------|
--------------0--L---x-----|-------------5----5--------------|
--9---9---9----------x-----|-------------6----6------------6-|
--9---9--------------x-9---|-----------------------------6---|
---------------------x-9---|--0---------------0------0-------|
--7-------7------7---x-----|---------------------------------|


     v v   >       T                          T
  E  S E.  Q    E  E  E     E.  S E  E.  S E  S E  S
-----4-4--------4--x-----|------4--------4----x------|
-----4-4---4----4--x-----|------5----5--------x-5----|
-----------4----4--x-----|------6----6--------x-6----|
-----------6----6--x-----|------6----6--------x-6----|
-----------4-------x-----|--0--------0-----0--x------|
--4----------------x--0--|--------------------x------|


                                       T           T
  E.  E.  S  E   E   S S S E     E.  S E  Q    S S S S S  S
------------/4--(4)-----------|------4-x-------4---x---------|
------------/4----------------|------5-x--5--------x-----(5)-|
--4---4-----/4-------4---4----|------6-x--6--------x---4-----|
--4---4----------------6------|--------x-----------x-6-------|
------------/4----------------|--0-----x--0------0-x---------|
--4------------------------0--|--------x-----------x---------|


                    ^
                             |--3--|                |--3--|
  E.  E  S E.  E  S E  E     S  S  S S S T. T. S. S S  S  S S S S  S  E
------4--------4----4-----|--5h-7p-5-------------------------------------|
--4---4----4---4----4-----|----------5-5-5h-7p-5----------------5--------|
--4---4----4--------4-----|--6---------6-6--------6-6h-7p-6---6---(6)----|
--4---------------4-------|---------------------------------7------------|
-----------4--------------|--5-------------------------------------------|
--4--------------------4--|-------------------------------------------5--|


     3  3  3
  E  S. S. S. Q    S E  Q       E.  S E  Q    E  S E.
-----------------------------|--7--------7-------------|
--------------7---------7----|--7---7----7-------------|
-----------9------------9----|--9---9----9----9----9---|
-----7--9------------7--9----|--9---9----9----9----9---|
-----------------------------|-------------------------|
--7--------------------------|--7--------7-------------|


  verse 3
                                         T
                   |--3-|
  Q        E  Q    S  S S S E  S    E  S E.  Q.     Q
---------------------------------|-----0-x----------0----|
------------------------0---0----|--0----x---0------0----|
----------/4--2----1h-2----------|--2----x---2-----------|
----------/4--2-----------2------|--2----x---2-----------|
---------------------------------|--0----x---0-----------|
--0------------------------------|-------x---------------|


                                       T
  Q     E  Q    E   E.    S     E.  E  S Q    E   S   S  E
-------------------------(0)-|------0--x--------------------|
-----------------------------|--0---0--x-0-------(0)--------|
-------/4--2----1------------|--2------x-2-----------(2)----|
-------/4--2-------(2)-------|--2------x-2------------------|
-----------------------------|--0------x-0----0-------------|
--0--------------------------|---------x-----------------0--|


                    T               ^           ^
  E.  S E  E.  S E  S S S S    Q    Q    S  E.  E  E
------4--------4----x-------|-------4------/4---4-----|
------5----5--------x-------|-------4------/4---4-----|
------6----6--------x---4---|--4----4------/4---4-----|
-----------6--------x-6---6-|--6----------------6-----|
--0--------0-----0--x-------|--------------/4------0--|
--------------------x-------|--4----------------------|


                                             T          T
  |--3--|
  S  S  S E  E  T. T. T S S E  Q       E  E  E  Q    E  E  E
--5h-7p-5----------------------5----|--------x----------x-----|
----------5-----------------5--5----|--7--7--x--7-------x--7--|
----------------6h-7p-6---6---------|--9--9--x--9----9--x--9--|
-------------7----------7-----------|--9--9--x--9----9--x--9--|
--5---------------------------------|--------x----------x-----|
------------------------------------|--7--7--x--7----7--x--7--|


                            2nd Chorus
        T                                            T
  E  E  E  Q    E  E  E     E.         S E  Q    S S S E.
--------x----------------|-------------4---------4---x-----|
--L-----x--7-------------|-------------5----5--------x-----|
--L--9--x--9-------------|-------------6----6--------x-6---|
--L--9--x--9-------9-----|---------------------------x-6---|
--------x----------9-----|--0---------------0------0-x-----|
--L--7--x--7----7-----0--|---------------------------x-----|


                   T                               T
  E.  S E  Q    E  T T  E   S    E.  S E  E.  S E  S S S S
----------------4--x---(4)----|------0-------------x-------|
--4---4----4----4--x---(4)----|------5----5--------x-----5-|
--4---4----4----4--x----------|------6----6--------x---6---|
--6---6----6-------x----------|------6----6---6----x-6-----|
-----------4-------x----------|--0--------0-----0--x-------|
--4----------------x----------|--------------------x-------|


     ^ v           T   ^               T           ^ v
  E  S E.  S  E  S S S E  E     E.  E  S S E  E  S S S E
-----4-4-----/4--4-x---4-----|--4---4--x-----------4-4----|
-----4-4-----/4----x---4-----|--5---5--x------5----5-5----|
--4--4-4-----/4----x---4-----|--6---6--x-x----6----6-6----|
--4----------------x-4-------|---------x------6--6-6------|
-------------/4----x---------|--0------x---0--------------|
--4----------------x------4--|---------x------------------|


                    ^
                             |--3--|     |--3--|     |--3--|
  E.  Q     E  E  S E  E     S  S  S S S S  S  S S S S  S  S S S S S E
---------------4----4-----|--5h-7p-5------------------------------------|
--4--------/4--4----4-----|----------5---------------------------5------|
--4---4----/4-------4-----|--6-------6-6-6h-7p-6---6-7h-9p-7---6--------|
--4---4-----------4-------|--0-------------------7-----------7-----0----|
-----------/4----------0--|------------------------------------------0--|
--4-----------------------|---------------------------------------------|


  E.  E.  E.  S E  Q       H        Q     E    E
----------7-------------|--------------------------|
------7---7--------7----|--------------------------|
------9---9--------9----|--9-----------------------|
------9---9---9----9----|--9-------------(9)-------|
--------------9---------|----------------(9)-------|
--7-------7-----7--7----|--7------------------(7)--|


  Instrumental
                                 >                   T          ^
  S            S  E.  S T. T. S. S E  S E.     E.  S E  Q    E  E  E
---------------------------------5----------|------4-x----------------|
--5h-----------7p-5---------------------5---|--5---5-x--5-------5-----|
------------------------6h-7p-6-------6-----|--6-----x--6-------4-----|
----------------------7---------------------|--------x----------6-----|
--5--------------------------------5--------|--4-----x--4-------------|
--------------------------------------------|--------x-------4-----0--|


  ^   v T                                 T          ^
           |--3--|
  E.  S E  S  S  S E.  S E  S S    E.  E  S E.  E  S E  E
------5-x--5------------------5-|------4--x-----4----4-----|
--5---5-x--5h-7p-5----------5---|--5---5--x-5--------5-----|
--6---6-x----------6-----6------|--6---6--x-6--------4-----|
--7-----x--------------7--------|---------x--------6-6-----|
--5-----x--5----------------5---|--4------x-4--------------|
--5-----x-----------------------|---------x-------------0--|


  ^   v  T >     >                      T           ^
  E.  E  S S  E  E  S S  S  E     E.  S E  E.  E  S E.  S
------5--x-------5-------------|------4-x------4----4-----|
--5---5--x-5h-7-------5h-7p-5--|--5---5-x--5--------5-----|
--6---6--x-6----------6--------|--6-----x--6------4-4-----|
--7------x---------------------|--------x-----------------|
--5------x-5--------5----------|--4-----x--4--------------|
---------x---------------------|--------x---------------4-|


  |--3--|
  S  S  S S S S  T    T    S  S T  T  S S S S S S S
--3h-5p-3---------------------------------------3---|
----------3-L---(3)h-(5)p-(3)-3-------------3-------|
--------------4---------------L-4h-5p-4---4---------|
------------5--------------5------------5-----------|
--3-------------------------------------------3---3-|
----------------------------------------------------|


  |--3--|
  S  S  S S S E  S S S  S S  S  S E  S    E  E  E  E  E  E  Q
--3h-5p-3--------3----------(3)--------|--------------2----------|
----------3-L-L-----------0-------0----|-----------2-------------|
--------------4------4S-2--------------|--------2--------2--2----|
------------5------5-------------------|-----2-------------------|
--3-----------------------------3----0-|--2----------------------|
---------------------------------------|-------------------------|


                      verse 4
  ^                             NH    NH   NH     NH
  W                   E         E     E    Q      E  Q
--2----------------|--------------------------------------|
--2----------------|---------------<>12-------------------|
--4----------------|--------------------------------------|
--4----------------|---------------------<>7--------------|
--2----------------|--------------------------------------|
-------------------|--0-------<>7---------------<>9--L----|


          NH                    NH    NH   NH     NH
  E  E    Q    H           E    E     E    Q      E  Q
------------------------|---------------------------------|
------------------------|----------<>12-------------------|
------------------------|---------------------------------|
------------------------|----------------<>7--------------|
-----7---------L--------|---------------------------------|
--5-----<>5----L--------|--0--<>7---------------<>9--L----|


       NH   NH    NH                      ^
  E    E    E     H        E     E  E  E  Q    E  E  E
------------------------------|-----------4-------------|
---------------<>12-----------|-----------5-------------|
------------------------------|--------4--4-------------|
----------<>7-----------------|-----6-----6-------6-----|
-----<>7----------------------|--0-------------0-----0--|
--5---------------------------|-------------------------|


                                   |--3--|    |--3--|
  E  E  E  E  E  E  Q       T. E.  S  S  S E  S  S  S S S E  E  X
--------------------4----|-----------------------------------5--L-|
-------------------------|--5h-7---5h-7p-5----------------5-------|
--4-----4--------4-------|--6------6-------6--6h-7p-6---6---------|
--6--6-------------------|----------------------------7-----------|
-----------6--4----------|--5-------------------------------------|
--4----------------------|----------------------------------------|


                                ^
  E  E  S S S S S S E  E  E     E  E  E  E  H           Q    H.
------------2-------------2--|--0--------0-----------|--------------------|
----------2---2--------5-----|--0-----2-----2--------|--L-----------------|
--------2-------2---2--------|--4--------------------|--------------------|
-----2------------2----------|--4--4-----------------|--------------------|
--2--------------------------|--2--------------------|--------------------|
-----------------------------|-----------------------|--------------------|


  3rd Chorus
               T           T                          ^
  E.         S E  E.  S E  S S E     E.  E  S Q    E  E   E
--4----------4-x------4----x------|------4--------------------|
--5----------5-x--5--------x---5--|--4---4----4-------4-------|
--6------------x--6--------x-6----|--4--------4-------4-------|
--6------------x--6--------x------|--6-------------4----------|
--0------------x--0-----0--x------|-----------4---------------|
---------------x-----------x------|--4-------------------(0)--|


        T          T                T
  E.  S E  E.  E.  S S S S    E.  S E.   E.  S S S E.
--4---4-x----------x-------|-----------------------4---|
--5---5-x--5-------x-------|--4---------/4-------4-----|
--6---6-x--6-------x---4---|--4---4-x---/4-----4-------|
--6-----x--6-------x-6---6-|--6---6-x--------4---------|
--0-----x--0---0---x-------|------------/4-------------|
--------x----------x-------|--4------------------------|


        T           T           v ^         v  T v
  E.  S E  E.  S E  S E.     E  S Q     E.  E  S S E
--------x-----------x-----|-------4---------4--x-4----|
------5-x--5--------x-5---|--4--4-4----/4---4--x-4----|
------6-x--6--------x-6---|--4----4----/4---4--x------|
------6-x--6---6----x-6---|--6-----------------x------|
--0-----x--0-----0--x-----|------------/4------x------|
--------x-----------x-----|--4-----------------x---4--|


  |--3--|                |--3--|
  S  S  S S S T  T  E  S S  S  S E  S S  S  S    E.  S E  E.  S E  Q
--5h-7p-5-------------------------------------|-------------------------|
----------5-5-5h-7p-5-----------------5-------|------7----7---7----7----|
--6-------6-6----------6-6h-7p-6----6---------|--9--------9--------9----|
---------------------------------7------------|--9--------9--------9----|
--5-------------------------------------------|-------------------------|
----------------------------------------(5)---|--7--------7-----7-------|


  4th Chorus
                           ^ v                          ^ v
  E.         S E  E.  S E  S S E     E.  E  E   E  E  S S S E
--4----------4----4---4----4-4----|------4---------4----4-4----|
--5----------5----5--------5-5----|--4---4-----/4-------4-4----|
--6---------------6--------6------|--4---4-----/4-----4-4------|
--6---------------6---------------|--6-------------------------|
--0---------------0-----0---------|------------/4--------------|
----------------------------------|--4-------------------------|


        T           T              ^ v    >
  E.  S E  E.  S E  S E   S     E  S E  S E.  S S S S S S S
--4---4-x--4--------x--------|-------4----4---------4-------|
--5---5-x--5---0----x-0------|--4--4-4----4-------4---4-----|
--6---6-x--6--------x--------|--4--4-4----4-----4-------4---|
--6-----x--6--------x----(6)-|--6-------------4-------------|
--0-----x--0-----0--x--------|------------4-----------------|
--------x-----------x--------|--4---------------------------|


              T      ^  T        v ^             v ^
  E.  S E  E  S S E  E  E     E  S Q     E  S E  S S E
--4---4----4--x-4----4--x--|-------4--------4----4-4----|
------5----5--x-5----5--x--|--4--4-4----/4-------4-4----|
--6---6----6--x-6----6--x--|--4--4-4----/4-------4------|
------6----6--x------6--x--|--6-------------------------|
--0--------0--x---0-----x--|------------/4-----------0--|
--------------x---------x--|--4---------------4---------|


  |--3--|
  S  S  S S S T T  T  S. S T T S S S S S S S    E.  S E  E.  S E  E  E
--5h-7p-5------------------------------5-----|--------------------------|
----------5-5-5-5h-7p-5--------------5-------|------7--------7----------|
--6---------6-6----------6-6-7-6---6---------|--9---9----9--------------|
---------------------------------7-----------|--9--------9--------9-----|
--5-----------5--------------------------5---|--------------------9-----|
-------------------------------------------5-|--7--------7-----7-----7--|


                                               Outro
                           ^
  E.  E  S Q    E  Q       W                   E     E.   S Q    E.  S E
------------------------|--7----------------|--------------------------0--|
------------------------|--7----------------|--------------------------0--|
--9---9----9----9-------|--9----------------|------------/4-2----1--------|
--9---9----9----9-------|--9----------------|--------2---/4-2----2--------|
------------------------|--7----------------|-----------------------------|
--7--------7------------|--7----------------|--0--------------------------|


                                                   >
   Q.      Q    E  E   E      E  Q    Q     E   E  E
-------------------0-------|----------4----(4)-----4--|
-----------0---------------|----------5----(5)--------|
---------------------------|-----4----4---------------|
----------------2----------|--------------------------|
---------------------------|-----------------------0--|
--(2)-----------------(0)--|--4-----------------------|


                                                SH
  E  S S Q    S  S S S  E    E       Q     E    H        E
--L--5-4-------------------------|--------------0-----------|
---------------------5------(5)--|--(0)-------<>0-----------|
---------4---------4---------L---|--(1)----1----------------|
--------------6h-7---------------|---------2----------------|
-----------------------(0)-------|--------------------------|
---------------------------------|---0----------------------|


  E  E  E  H         E      E  E  E  Q    E   E    E
-----------2-------------|-----------4-------(4)-------|
--------5--5-------------|--------5--5-----------------|
-----4-----4-------------|-----4--L--4----4------------|
-------------------------|-----------------------------|
-------------------------|-----------------------------|
--2-----------------(0)--|--4---------------------(0)--|


                                  >    >    >    >     >     >    >    >
  E  E  E  E  E  E  E   E         E    E    E    E     E     E    E    E
--4-----------4-------------|-----------------------------<>12------------|
-----5-----------5-----(5)--|-----------------------<>12------------------|
--------4-----------4-------|---------------------------------------------|
-----------6----------------|------------------<>7--------------<>7-------|
--0-------------------------|-------------<>7------------------------<>7--|
----------------------------|--<>12--<>7----------------------------------|


    SH
    W
---------------------||
---------------------||
---------------------||
---------------------||
---------------------||
--<>0----------------||


Duration Legend
---------------
W - whole
H - half
Q - quarter
E - 8th
S - 16th
T - 32nd
X - 64th
. - note dotted
|-n-|  - n-tuplets


Tablature Legend
----------------
L - tied note
x - dead note
g - grace note
(n) - ghost note
> - accentuded note
NH - natural harmonic
AH - artificial harmonic
TH - tapped harmonic
SH - semi harmonic
PH - pitch harmonic
h - hammer on
p - pull off
b - bend
br - bendRelease
pb - preBend
pbr - preBendRelease
brb - bendReleaseBend
\n/ - tremolo bar dip
\n - tremolo bar dive
-/n - tremolo bar Release up
/n\ - tremolo bar inverted dip
/n - tremolo bar return
-\n - tremolo bar Release down
S - shift slide
s - legato slide
/ -  slide into from below or out of upwards
\ -  slide into from above or out of downwards
~ - vibrato
W - wide vibrato
tr - trill
TP - tremolo picking
T - tapping
S - slap
P - pop
< - fade in
^ - brush up
v - brush down

            
            
Suggest correction
Creating personal tab
Creating personal tab
You can edit any tab online and save it as your Personal.

You can edit, replace or remove any tab part or add personal notes – all changes will be seen only by you.

Personal tabs can be accessed anytime from any device, even offline.
Learn more »
Give kudos to tab author, rate the tab!
1 2 3 4 5
comments
print report bad tab
1 comment total.
0 reply
btnheazy03 31 Nov 12, 2009 10:30 PM

thanks for the hard work

guest
You may want to rate the tab now too:
select rating
Wanna post a correction for this tab? Suggest correction