Oops, an error
Loading. Please wait.

El Jean Azul Tab

version 1
version 1

Whole song

by Trulala
26 views 1 this week
no commentswrite comment
1 2 3 4 5
3 more votes to show rating
add to favorites
×
Save as Personal and add changes to this tab that will be seen only by you. Learn more ›
×
You can save this tab as Personal to edit and correct it or add notes. All changes will be seen only by you. Learn more »
save as personal
new!
launch autoscroll
font size
0
reset
how to read this tab
guitar tuner
Autoscroll
slow
fast
+/-
esc
set tempo
stop
Hola, dejo este clasico de trula, trate de hacerla lo mas
completa posible, espero que les sirva. dudas alevoodoo@

INTRO:
                                 Dm                 G              C
                                   Ponte ese jean azul que te regale,
E--------------------------------------------------------------------
B--------10-12/13-12~--10-12-13~------------------------------------
G--10-12-------------------------------------------------------------
D--------------------------------------------------------------------
A--------------------------------------------------------------------
E--------------------------------------------------------------------
                   F                  Dm                        G
              Te queda bien,            Y ve corriendo a su encuentro
E--------------------------------------------------------------------
B------13-15-13-/17-15--/13/13~--------------------------------------
G---14--------------------------/14/14~-----------------------------
D--------------------------------------------------------------------
A--------------------------------------------------------------------
E--------------------------------------------------------------------
                      C                        F
  Que él te espera mujer.                  Ya se...
E---------------------------15---------------------------------------
B------------------------------13~-12-13-12--------------------------
G-------------------------------------------14--12-14-12~------------
D--------------------------------------------------------------------
A--------------------------------------------------------------------
E--------------------------------------------------------------------
                    G                                             C    G
                          Que por las noches dormida lo nombras a él.
E--------------------12-13--15/17-15~--------------------------------
B-----------12-13-15-------------------------------------------------
G-----12-14----------------------------------------------------------
D-/14----------------------------------------------------------------
A--------------------------------------------------------------------
E--------------------------------------------------------------------

Dm                   G               C
Gracias por todo te dí por fin entendí,
   F  Dm                           G                C
Y sé... que el fuego que hay en tu alma no es para mí.
    F                                       G
Ya sé... el amor que tu sientes no es para mi.


          C            G
Dale tu amor, dale tu piel,
                     F                G     C   G
Y con tus gotas de miel endúlzale la vida a él.
            C                          G
Y dile también, cuando te acuestes con él,
                     F               G                  C
Y entre sueños otro nombre digas dormida y no sea el de él.

INTER: C Am F G x2
Dm               G              C       F
Ponte ese jean azul que te regalé, te queda bien,
Dm                    G                         C
Ve corriendo a su encuentro que él te espera mujer.
    F                                            G
Ya se... que por las noches dormida lo nombras a él.

          C            G
Dale tu amor, dale tu piel,
                     F                G     C   G
Y con tus gotas de miel endúlzale la vida a él.
            C                          G
Y dile también, cuando te acuestes con él,
                     F               G                  C
Y entre sueños otro nombre digas dormida y no sea el de él.

INTER F G Em Am x4 F G

          C            G
Dale tu amor, dale tu piel,
                     F                G     C   G
Y con tus gotas de miel endúlzale la vida a él.
            C                          G
Y dile también, cuando te acuestes con él,
                     F               G                  C
Y entre sueños otro nombre digas dormida y no sea el de él.

INTER FINAL: F G Em Am X2 F G    C
Suggest correction
Give kudos to tab author, rate the tab!
1 2 3 4 5
comments
print report bad tab
guest
Wanna post a correction for this tab? Suggest correction