Oops, an error
Loading. Please wait.

Maldita Nena Chords

version 1
version 1

Whole song

6 views 1 this week
no commentswrite comment
1 2 3 4 5
3 more votes to show rating
add to favorites
launch autoscroll
font size
0
reset
transpose
0
reset
display chords
guitar tuner
Autoscroll
slow
fast
+/-
esc
set tempo
stop
Help us to improve Ultimate-Guitar.com Take our survey!
×
INTRO


            Cm                            Bb
e-----------------------------------------------------
B-----------8-----8---11-8-----------8-8----8---11-8--
G------8-10----10---------------8-10-----10-----------
D---10-----------------------10-----------------------
A-----------------------------------------------------
E-----------------------------------------------------

                                                           x2
            Ab             Ab           G
e-----------------------------------------------------
B-----------8-------------8---------------------------
G------8-10----10-8-7-------10-8-7--------------------
D---10----------------10-----------10-7---------------
A-----------------------------------------------------
E-----------------------------------------------------


Cm                                                  Bb
Tú te llevaste de mí, aquellos besos que robé a mi mujer.
Ab                Fm
Tú te llevaste de mí,
         Ab                    Fm
noches enteras de amor, que a ella
      G
le negaba.


Cm                                                   Bb
Tú te llevaste de mí, todo el calor de mi piel en tu piel...
Ab                   Fm
Tú te llevaste de mí,
Ab                           G           G A B (puente)
los años que me quedan por vivir...


Cm             Bb
Maldita nena maldita,
Cm             Bb
maldita nena maldita,
Ab                      Fm
Te has burlado de mi fe
                  G           G A B (puente)
y mi confianza...

Cm             Bb
Maldita nena maldita,
Cm             Bb
Maldita nena maldita,
Ab                                  Fm
No quiero verte en el camino del fracaso,
Ab                       G
Porque lo juro que a Dios le entrego tu vida...


Esta es mi primera colaboración,un temita de la Voz de Terciopelo
que busque y no encontre
un temita que me parece muy adecuado para los tiempos que vivimos.
Los acordes estan ubicádos mas o menos sobre la acentuacion
del verso, para sacar bien los tiempos escuchar sobre la cancion,
espero que se entienda y que les sirva.
cualquier duda o sugerencia hagasen da! jaja


tucuman
Suggest correction
Give kudos to tab author, rate the tab!
1 2 3 4 5
comments
print report bad tab
guest
You may want to rate the tab now too:
select rating
Wanna post a correction for this tab? Suggest correction