Oops, an error
Loading. Please wait.

Crecer Tab

8 views 1 this week
no commentswrite comment
1 2 3 4 5
3 more votes to show rating
add to favorites
launch autoscroll
font size
0
reset
how to read this tab
guitar tuner
Autoscroll
slow
fast
+/-
esc
set tempo
stop
Help us to improve Ultimate-Guitar.com Take our survey!
×
este solo es muy facil espero que les guste la cansion las notas ya estan
subidas por otra persona. saludos a todos los de ARICA Chile

|---------------------------------------------------------------|
|------------------------------------------------13--12---------|
|-------12-14-12--------12-14-12--14br-12-14-12---------14-12-14|
|-12-14-----------12-14-----------------------------------------|
|---------------------------------------------------------------|
|---------------------------------------------------------------|

|--------------------------------------------------------|
|--------------------------------------------------------|
|14br--12--14br-12---------------------------------------|
|-------------------14-14---14-14---12---12---10--10--9--|
|--------------------------------------------------------|
|--------------------------------------------------------|


|----------------------------------------------------------------|
|----------------------------------------------------------------|
|----------------------------------------------------------------|
|10-10--10s-12-10--9--10--9--10--10--10s-12-10--9--10--9--10--12-|
|----------------------------------------------------------------|
|----------------------------------------------------------------|


br - bendrelease (subes y despues bajas la cuerda /  )
s  - side
Suggest correction
Give kudos to tab author, rate the tab!
1 2 3 4 5
comments
print report bad tab
guest
You may want to rate the tab now too:
select rating
Wanna post a correction for this tab? Suggest correction