Oops, an error
Loading. Please wait.

Finishing Your Dinner tab

61 views 3 this week
no commentswrite comment
1 2 3 4 5
3 more votes to show rating
add to favorites
×
Save as Personal and add changes to this tab that will be seen only by you. Learn more ›
×
You can save this tab as Personal to edit and correct it or add notes. All changes will be seen only by you. Learn more »
launch autoscroll
font size
0
reset
how to read this tab
guitar tuner
edit
Autoscroll
slow
fast
+/-
esc
set tempo
stop
Author
[Intro]

e|---------------------------------------------------------------------------|
B|---------------------------------------------------------------------------|
G|---------------------------------------------------------------------------|
D|---------------------------------------------------------------------------|
A|--7-7-7-7-7--2-2-2-2-2--4-4-4-4-4--9-7-5-4/7-7-7-7-7--2-2-2-2-2--4-4-4-4-4-|
E|--5-5-5-5-5--0-0-0-0-0--2-2-2-2-2----------5-5-5-5-5--0-0-0-0-0--2-2-2-2-2-|

e|---------------------------------------------------------------------------|
B|---------------------------------------------------------------------------|
G|---------------------------------------------------------------------------|
D|---------------------------------------------------------------------------|
A|--9-7-5-4/7-7-7-7-7--2-2-2-2-2--4-4-4-4-4--9-7-5-4/7-7-7-7-7--2-2-2-2-2----|
E|----------5-5-5-5-5--0-0-0-0-0--2-2-2-2-2----------5-5-5-5-5--0-0-0-0-0----|

e|---------------------------------------------------------------------------|
B|---------------------------------------------------------------------------|
G|---------------------------------------------------------------------------|
D|---------------------------------------------------------------------------|
A|--4-4-4-4-4--9-7-5-4-5-4-2-4-5-4-5-7-5-4-2-4-------------------------------|
E|--2-2-2-2-2----------------------------------------------------------------|
                                           I want
[Verse]

e|---------------------------------------------------------------------------|
B|---------------------------------------------------------------------------|
G|---------------------------------------------------------------------------|
D|---------------------------------------------------------------------------|
A|--7-7-7-7-7--2-2-2-2-2--4-4-4-4-4--9-7-5-4/--------------------------------| 8x
E|--5-5-5-5-5--0-0-0-0-0--2-2-2-2-2------------------------------------------|

nothing more than to hear about the last year of your life
i have been on a train for four hours and if i don't eat i will die
and within a half an hour it is like we've always been together 
you are crying you are shaking i am finishing your dinner
in the same japanese restaurant where we eat a year ago
you are telling me that everything i do is about control
and you are right and even if you weren't
how would there be any way that i could win this argument

              D                        A                E
cause if it's not about control i am unfurling to describe
      D                           A              E
how a girl i am not interested in asked me out tonight
           D                              A              E
there's no need for you to worry cause it doesn't happen often
        G
and she seems nice
E        G              
probably nothing will happen

e|---------------------------------------------------------------------------|
B|---------------------------------------------------------------------------|
G|---------------------------------------------------------------------------|
D|---------------------------------------------------------------------------|
A|--7-7-7-7-7--2-2-2-2-2--4-4-4-4-4--9-7-5-4---------------------------------|
E|--5-5-5-5-5--0-0-0-0-0--2-2-2-2-2------------------------------------------|
                          i guess that nothing will happen

e|---------------------------------------------------------------------------|
B|---------------------------------------------------------------------------|
G|---------------------------------------------------------------------------|
D|---------------------------------------------------------------------------|
A|--7-7-7-7-7--2-2-2-2-2--4-4-4-4-4--9-7-5-4-5-4-2-4-5-4-5-7-5-4-2-4---------|
E|--5-5-5-5-5--0-0-0-0-0--2-2-2-2-2------------------------------------------|
                                                        i'm gonna hang up the 
   A            E    F#m     D           A         E      F#m D
phone now and i will see you tomorrow if you still wanna hang out
                  E      A            E    F#m     D           A         E      F#m D
i'm gonna hang up the phone now and i will see you tomorrow if you still wanna hang out
                  E      A            E    F#m     D           A         E      F#m D
i'm gonna hang up the phone now and i will see you tomorrow if you still wanna hang out

A E F#m D

e|---------------------------------------------------------------------------|
B|---------------------------------------------------------------------------|
G|---------------------------------------------------------------------------|
D|---------------------------------------------------------------------------|
A|--7------2------4------9-7-5-4-5-4-2-4-5-4-5-7-5-4-2-4---------------------|
E|--5------0------2----------------------------------------------------------|
                                                        i'm gonna hang up the
   A            E    F#m     D           A         E      F#m D
phone now and i will see you tomorrow if you still wanna hang out
                  E      A            E    F#m     D           A         E      F#m D
i'm gonna hang up the phone now and i will see you tomorrow if you still wanna hang out
                  E      A            E    F#m     D           A         E      F#m D
i'm gonna hang up the phone now and i will see you tomorrow if you still wanna hang out
                  E      A            E    F#m     D           A         E      F#m D
i'm gonna hang up the phone now and i will see you tomorrow if you still wanna hang out
                  E      A            E    F#m     D           A         E      F#m D
i'm gonna hang up the phone now and i will see you tomorrow if you still wanna hang out

            
            
Suggest correction
Creating personal tab
Creating personal tab
You can edit any tab online and save it as your Personal.

You can edit, replace or remove any tab part or add personal notes – all changes will be seen only by you.

Personal tabs can be accessed anytime from any device, even offline.
Learn more »
Give kudos to tab author, rate the tab!
1 2 3 4 5
comments
print report bad tab
guest
You may want to rate the tab now too:
select rating
Wanna post a correction for this tab? Suggest correction